Riverdales - Diabolik tab

Verse
e|--------|
B|--------|
G|--4*----|
D|--4--6*-| *12 times each   x2
A|--2--6--|
E|-----4--|

Pre-Chorus
e|-------------|
B|-------------|
G|--------4----|
D|--2--4--4----|     x3
A|--2--4--2----|
E|--0--2-------|

e|-------------|
B|-------------|
G|-------------|
D|-----4-------|
A|-----4-------|
E|-----2-------|

Chorus
e|--------------|
B|--------------|
G|--4-----------|
D|--4--4--6--2--|   x3
A|--2--4--6--2--|
E|-----2--4--0--|

e|-------------|
B|-------------|
G|-------------|
D|----4--------|
A|----4--------|
E|----2--------|

Repeat

Bridge
e|-------------|
B|-------------|
G|-----------4-|
D|--2--4--6--4-|
A|--2--4--6--2-|
E|--0--2--4----|

e|-------------|
B|-------------|
G|-----4-------|
D|--2--4--4----|
A|--2--2--4----|
E|--0-----2----|

Chorus

Outro
e|-------------------------|
B|-------------------------|
G|-----4-----4-----4-------|
D|--4--4--2--4--4--4--2--2-|  
A|--4--2--2--2--4--2--2--2-|
E|--2-----0-----2-----0--2-|

Verse
Tap to rate this tab
 
# A B C D E F G H I J K L M N O P Q R S T U V W X Y Z