Song name
# A B C D E F G H I J K L M N O P Q R S T U V W X Y Z

Riverdales - Fun Tonight tab

Fun Tonight
Riverdales (1995)
Riverdales

Intro (x4)
e|-------------------------------------|
B|-------------------------------------|
G|-------------------------------------|
D|-------------------------------------|
A|-------------------------------------|
E|-------------------------------------|
We're gonna have fun tonight
We're gonna have fun tonight

Verse (x2)
e|-------------------------------------------------|
B|-------------------------------------------------|
G|--5/6-6------8/9-9------10/11-11------5/6-6------|
D|--5/6-6-(x7)-8/9-9-(x7)-10/11-11-(x7)-5/6-6-(x7)-|
A|--3/4-4------6/7-7-------8/9--9-------3/4-4------|
E|-------------------------------------------------|
Grab your date and motorbabe
cause we're gonna have fun tonight
We're gonna throw a bomb in the city you're from
yeah we're gonna have fun tonight

Chorus (x2)
e|----------------------|
B|----------------------|
G|-9------4------6------|
D|-9-(x4)-4-(x4)-6-(x8)-|
A|-7------2------4---2--|
E|----------------------|
We're gonna have fun tonight
We're gonna have fun tonight

e|-------------------------------------------------|
B|-------------------------------------------------|
G|-9------4------11------4------6------------------|
D|-9-(x4)-4-(x4)-11-(x4)-4-(x4)-6-(x8)-------------|
A|-7------2------9-------2------4------------------|
E|-------------------------------------------------|
We're gonna have fun, yeah we're gonna have fun tonight

Verse
e|-------------------------------------------------|
B|-------------------------------------------------|
G|--5/6-6------8/9-9------10/11-11------5/6-6------|
D|--5/6-6-(x7)-8/9-9-(x7)-10/11-11-(x7)-5/6-6-(x7)-|
A|--3/4-4------6/7-7-------8/9--9-------3/4-4------|
E|-------------------------------------------------|
We want something new right now and we're gonna have fun tonight
Bored and sick of everything, yeah, we're gonna have fun tonight

Chorus (x2)
e|----------------------|
B|----------------------|
G|-9------4------6------|
D|-9-(x4)-4-(x4)-6-(x8)-|
A|-7------2------4---2--|
E|----------------------|
We're gonna have fun tonight
We're gonna have fun tonight

e|-------------------------------------------------|
B|-------------------------------------------------|
G|-9------4------11------4------6------------------|
D|-9-(x4)-4-(x4)-11-(x4)-4-(x4)-6-(x8)-------------|
A|-7------2------9-------2------4------------------|
E|-------------------------------------------------|
We're gonna have fun, yeah we're gonna have fun tonight

Break
1, 2, 3, Go!

Bridge (x2)
e|-------------------------------------------------|
B|-------------------------------------------------|
G|--5/6-6------8/9-9------10/11-11------5/6-6------|
D|--5/6-6-(x7)-8/9-9-(x7)-10/11-11-(x7)-5/6-6-(x7)-|
A|--3/4-4------6/7-7-------8/9--9-------3/4-4------|
E|-------------------------------------------------|

Verse (x2)
e|-------------------------------------------------|
B|-------------------------------------------------|
G|--5/6-6------8/9-9------10/11-11------5/6-6------|
D|--5/6-6-(x7)-8/9-9-(x7)-10/11-11-(x7)-5/6-6-(x7)-|
A|--3/4-4------6/7-7-------8/9--9-------3/4-4------|
E|-------------------------------------------------|
It doesn't matter where we go cause we're gonna have fun tonight
We got the Fastbacks kickin' on the radio and we're gonna have fun tonight

Chorus (x2)
e|----------------------|
B|----------------------|
G|-9------4------6------|
D|-9-(x4)-4-(x4)-6-(x8)-|
A|-7------2------4---2--|
E|----------------------|
We're gonna have fun tonight
We're gonna have fun tonight

e|-------------------------------------------------|
B|-------------------------------------------------|
G|-9------4------11------4------6------------------|
D|-9-(x4)-4-(x4)-11-(x4)-4-(x4)-6-(x8)-------------|
A|-7------2------9-------2------4------------------|
E|-------------------------------------------------|
We're gonna have fun, yeah we're gonna have fun tonight

Break (x4)
e|----|
B|----|[As Rev. Norb's speech begins, hold a C# note until the first chord, which is
G|-6~-|a C#.  Continue to hit a one-beat C# chord every four bars throughout the breakdown.]
D|-6~-|
A|-4~-|
E|----|

Verse (x4)
e|-------------------------------------------------|
B|-------------------------------------------------|
G|--5/6-6------8/9-9------10/11-11------5/6-6------|
D|--5/6-6-(x7)-8/9-9-(x7)-10/11-11-(x7)-5/6-6-(x7)-|
A|--3/4-4------6/7-7-------8/9--9-------3/4-4------|
E|-------------------------------------------------|

Verse (x4)
e|-------------------------------------------------|
B|-------------------------------------------------|
G|--5/6-6------8/9-9------10/11-11------5/6-6------|
D|--5/6-6-(x7)-8/9-9-(x7)-10/11-11-(x7)-5/6-6-(x7)-|
A|--3/4-4------6/7-7-------8/9--9-------3/4-4------|
E|-------------------------------------------------|
Yeah Yeah Yeah Yeah!
Yeah Yeah Yeah Yeah!

[Fixed the start]
Tap to rate this tab
# A B C D E F G H I J K L M N O P Q R S T U V W X Y Z