Song name
# A B C D E F G H I J K L M N O P Q R S T U V W X Y Z

Riverdales - Last Stop Tokyo tab

Last Stop Tokyo
Phase 3 (2003)
Riverdales

Intro (x2)
e|--------------------------------------|
B|--------------------------------------|
G|-----------5-5-5-5----5-5-5-5---------|
D|-2------5--5-5-5-5--5-5-5-5-5-5-5-5-5-|
A|-2-x16--5--3-3-3-3--5-3-3-3-3-5-5-5-5-|
E|-0------3-----------3---------3-3-3-3-|

Verse (x2)
e|--------------------------------------|
B|--------------------------------------|
G|-----------5-5-5-5----5-5-5-5---------|
D|-2------5--5-5-5-5--5-5-5-5-5-5-5-5-5-|
A|-2-x16--5--3-3-3-3--5-3-3-3-3-5-5-5-5-|
E|-0------3-----------3---------3-3-3-3-|
No past, identity, or friends
It's finally coming to an end

e|---------------------------------|
B|---------------------------------|
G|-5------7------9-----7-----5-----|
D|-5-x16--7-x16--9-x8--7-x8--5-x32-|
A|-3------5------7-----5-----3-----|
E|---------------------------------|
This years fall line is superb
Paris, Prague, Barcelona, Rome
And I have no home
Last stop Tokyo

Intro (x2)
e|--------------------------------------|
B|--------------------------------------|
G|-----------5-5-5-5----5-5-5-5---------|
D|-2------5--5-5-5-5--5-5-5-5-5-5-5-5-5-|
A|-2-x16--5--3-3-3-3--5-3-3-3-3-5-5-5-5-|
E|-0------3-----------3---------3-3-3-3-|

Verse (x2)
e|--------------------------------------|
B|--------------------------------------|
G|-----------5-5-5-5----5-5-5-5---------|
D|-2------5--5-5-5-5--5-5-5-5-5-5-5-5-5-|
A|-2-x16--5--3-3-3-3--5-3-3-3-3-5-5-5-5-|
E|-0------3-----------3---------3-3-3-3-|
The bay is shrinking everyday
There's room enough in it for me

e|---------------------------------|
B|---------------------------------|
G|-5------7------9-----7-----5-----|
D|-5-x16--7-x16--9-x8--7-x8--5-x32-|
A|-3------5------7-----5-----3-----|
E|---------------------------------|
Assignment Estonia, Budapest, Helsinki, Oslo
And I have no home
Last stop Tokyo

Intro (x2)
e|--------------------------------------|
B|--------------------------------------|
G|-----------5-5-5-5----5-5-5-5---------|
D|-2------5--5-5-5-5--5-5-5-5-5-5-5-5-5-|
A|-2-x16--5--3-3-3-3--5-3-3-3-3-5-5-5-5-|
E|-0------3-----------3---------3-3-3-3-|

Bridge (x3)
e|------------------------|
B|------------------------|
G|-------------5-----7----|
D|-2-----5-----5-x8--7-x8-|
A|-2-x8--5-x8--3-----5----|
E|-0-----3----------------|
    |--------PM-------|
Name, rank, and serial number, I'm not a mercenary
Name, rank, and serial number, I'm just a businessman, see
Name, rank, and serial number, I'm not a Green Baret, see

e|------------------------|
B|------------------------|
G|-------------5-----7----|
D|-2-----5-----5-x8--7-x8-|
A|-2-x8--5-x8--3-----5----|
E|-0-----3----------------|
    |-----PM----|
Name, rank, and serial number, They're gonna kill me next week

e|---------------------------------|
B|---------------------------------|
G|-5------7------9-----7-----5-----|
D|-5-x16--7-x16--9-x8--7-x8--5-x32-|
A|-3------5------7-----5-----3-----|
E|---------------------------------|
Belfast and London calling
Them to my target in cologne
But I have no hope
Last stop Tokyo

Outro (x4)
e|---------------------------------------|
B|---------------------------------------|
G|-----------5-5-5-5----5-5-5-5----------|
D|-2------5--5-5-5-5--5-5-5-5-5--5-5-5-5-|
A|-2-x16--5--3-3-3-3--5-3-3-3-3--5-5-5-5-|
E|-0------3-----------3----------3-3-3-3-|
Last stop Tokyo
Last stop Tokyo
Last stop Tokyo
Tap to rate this tab
 
# A B C D E F G H I J K L M N O P Q R S T U V W X Y Z