Song name
# A B C D E F G H I J K L M N O P Q R S T U V W X Y Z

Riverdales - Mental Retard tab

Mental Retard
Storm The Streets (1997)
Riverdales

Intro x2
e|--------------------------------------------------------|
B|--------------------------------------------------------|
G|--11-111111111111-9-999999-7-777-4-444-11-111111111111--|
D|--11-111111111111-9-999999-7-777-4-444-11-111111111111--|
A|---9--9-9-9-9-9-9-7-777777-5-555-2-222--9--9-9-9-9-9-9--|
E|--------------------------------------------------------|

Verse x2
e|-----------------------------------------|
B|-----------------------------------------|
G|-------------11------7-----------11------|
D|--7-----9----11-x12--7-x8--9-----11-x12--|
A|--7-x8--9-x8--9------5-----9-x8--9-------|
E|--5-----7------------------7-------------|
Graduated Miskatonic U
Now I work Gizmotic Institute
Graduated Miskatonic U
Now I work Gizmotic Institute

Bridge x4
e|----------------------|
B|----------------------|
G|---------11--------9--|
D|--9-9999-11-7-7777-9--|
A|--9-9999--9-7-7777-7--|
E|--7-7777----5-5555----|

Intro x2
e -------------------------------------------------------|
B -------------------------------------------------------|
G -11-111111111111-9-999999-7-777-4-444-11-111111111111--|
D -11-111111111111-9-999999-7-777-4-444-11-111111111111--|
A --9--9-9-9-9-9-9-7-777777-5-555-2-222--9--9-9-9-9-9-9--|
E -------------------------------------------------------|

Verse x2
e|-----------------------------------------|
B|-----------------------------------------|
G|-------------11------7-----------11------|
D|--7-----9----11-x12--7-x8--9-----11-x12--|
A|--7-x8--9-x8--9------5-----9-x8--9-------|
E|--5-----7------------------7-------------|
Graduated Miskatonic U
Now I work Gizmotic Institute
Graduated Miskatonic U
Now I work Gizmotic Institute

Bridge x4
e|----------------------|
B|----------------------|
G|---------11--------9--|
D|--9-9999-11-7-7777-9--|
A|--9-9999--9-7-7777-7--|
E|--7-7777----5-5555----|
It hurts!

Chorus
e|------------------------------------------------------------------------|
B|------------------------------------------------------------------------|
G|-------------------------------------------------------*-------------9--|
D|-------------------------------------------------------9999999999999-9--|
A|------------------------------------------------------9999999999999-7--|
E|-------------------------------------------------------7777777777777----|
I'm not mentally retarded
Mentally retarded
Mentally retarded
Mentally retarded
Mentally retarded
Mentally retarded *
Mentally retarded

Bridge x4
e|----------------------|
B|----------------------|
G|---------11--------9--|
D|--9-9999-11-7-7777-9--|
A|--9-9999--9-7-7777-7--|
E|--7-7777----5-5555----|

Intro x2
e|--------------------------------------------------------|
B|--------------------------------------------------------|
G|--11-111111111111-9-999999-7-777-4-444-11-111111111111--|
D|--11-111111111111-9-999999-7-777-4-444-11-111111111111--|
A|---9--9-9-9-9-9-9-7-777777-5-555-2-222--9--9-9-9-9-9-9--|
E|--------------------------------------------------------|

Verse x2
e|-----------------------------------------|
B|-----------------------------------------|
G|-------------11------7-----------11------|
D|--7-----9----11-x12--7-x8--9-----11-x12--|
A|--7-x8--9-x8--9------5-----9-x8--9-------|
E|--5-----7------------------7-------------|
Graduated Miskatonic U
Now I'm in Gizmotic Institute
Graduated from Hamburger U
Now I drive Zamboni for the Moose

Bridge x4
e|----------------------|
B|----------------------|
G|---------11--------9--|
D|--9-9999-11-7-7777-9--|
A|--9-9999--9-7-7777-7--|
E|--7-7777----5-5555----|
Ya jerk!

Chorus
e|------------------------------------------------------------------------|
B|------------------------------------------------------------------------|
G|-------------------------------------------------------*-------------9--|
D|-------------------------------------------------------9999999999999-9--|
A|------------------------------------------------------9999999999999-7--|
E|-------------------------------------------------------7777777777777----|
I'm not mentally retarded
Mentally retarded
Mentally retarded
Mentally retarded
Mentally retarded
Mentally retarded *
Mentally retarded

Bridge x4
e|----------------------|
B|----------------------|
G|---------11--------9--|
D|--9-9999-11-7-7777-9--|
A|--9-9999--9-7-7777-7--|
E|--7-7777----5-5555----|
Mentally
Mentally
Mentally
Mentally

Outro
e|-------------------------------------------|
B|-------------------------------------------|
G|--11-111111111111-9-999999-7-777-4-444-11--|
D|--11-111111111111-9-999999-7-777-4-444-11--|
A|---9--9-9-9-9-9-9-7-777777-5-555-2-222--9--|
E|-------------------------------------------|
Tap to rate this tab
# A B C D E F G H I J K L M N O P Q R S T U V W X Y Z