Guitaretab - guitar tabs
Song name
# A B C D E F G H I J K L M N O P Q R S T U V W X Y Z

Riverdance - Firedance tab

this is what i could work out of firedance in an hour lol.
anyone can finish it, would be greatly appreciated.

----3---2h3p2--------------0----------------0----------|
--------3-------3-----3----------------0------(12)-----|
----------------2-------------2---2---(2?)-------------|
-2------0-------------------------0--------------------|
----------------------2----3-----------3---------------|
----------------------------------3--------------------|

----3---2h3p2--------------0------------------------|
--------3-------3-----3-----------------------------|
----------------2-------------2---2-----4-----------|
-2------0-------------------------0-----2-----------|
----------------------2----3------------------------|
----------------------------------3-----4-----------|

----------------------------------------------------|
--0--1p0----0-----1-------0----0---0h1p0---0-1------|
---------2--2-----2-----2------2---------2-2-2------|
------------- ----2---2----------------------0------|
------------0------------------0--------------------|
-------------------------------------------1--------|

--------------------------------0--3----1-1-------0---------|
------0---0-010----0-1----1--3--3-------1-1---1---1-----1---|
----2------------2----------------------1-1-------0---0-----|
--2---------------------2-------------------------2-2-------|
---------------------3----------3---------------------------|
----------------------------------------4---4-----3---------|
           1:20
-------0-1----3----------------------------0------------|
--3--3-----3-------3--1-1---------1---3-s5-----(12)-----|
--0--------------------------0--------------------------|
--2------------------------2---2----2-------------------|
--3---------------------3---------3--------2------------|
-----------3-----3--------------------------------------|
[ Tab from: http://www.guitaretab.com/r/riverdance/108897.html ]
----3---2h3p2--------------0----------------0--------|
--------3-------3-----3----------------0------(12)---|
----------------2-------------2---2---(2?)-----------|
-2------0-------------------------0------------------|
----------------------2----3-------------------------|
----------------------------------3----0-------------|

                                      1:42
----3---2h3p2--------------0-----------------------|
--------3-------3-----3----------------------------|
----------------2-------------2---2-----4-----4----|
-2------0-------------------------0-----2---2------|
----------------------2----3-----------------------|
----------------------------------3-----4----------|

---------------------------------------------------------|
-----3-0-1-0--0--1---------0-0----3-0-1-0---1--3-0-0-1---|
--------------2--2--------------------------2------------|
-----------------2-------2-------------------------------|
--------------0--------0-----0---------------------------|
--------------------------------------------1------------|

---------------------------------------3--------------------|
--------0--1-0----0--1----1--3--3s5---------6--5-3----------|
-----2----------2-------0------------3------5-----5-3-------|
---3-----------------2----------------------3--------5-3----|
--------------------------------------------3-----------3---|
-1-------------------3------------3-------------------------|

------------------------------3-----------------------------|
--5--3---5--3-5-----3-5-6--3----------3-----1--1--------1---|
---------5-----------------5-----------------------0--------|
---------3-----------------5---------------------2---2----2-|
---------3-----------------3-------------------3--------3---|
-----------------3-----------------3------------------------|
                 2:15
-----0------------------------------------------------------|
--3s5-------(12)--------------------------------------------|
------------------------------------------------------------|
------------------------------------------------------------|
-----2------------------------------------------------------|
------------------------------------------------------------|
Related for Firedance tab
Advertisement will be closed in 10 seconds