Song name
# A B C D E F G H I J K L M N O P Q R S T U V W X Y Z

Rivermaya - Evil Clown tab

Song: Evil Clown
Artist: Rivermaya
Album: Live and Acoustic
Tabbed by: John Paulo Valenton
Email add: Emotional_core15@yahoo.com


Napakaganda ng kantang 2!!! Walang katapat!!

Intro:

Guitar1: (Sasabay lang sa bass)
E|---------------------|-------------------------|
B|-----3---3-----------|-----3---3---------------|
G|---2-2-2-2-2--3-2b---|---2-2-2-2-2--3-2b-------| (4x)
D|---------------------|-------------------------|
A|---------------------|-------------------------|
E|---------------------|-------------------------|

Guitar2: (Papasok lang 2ng 2nd guitar sa pangatlo)
E|---------------------|-------------------------|
B|-----3---3-----------|-----3---3-----------4b--|
G|-0h2---2---2b-3-2-2b-|-0h2---2---2b-3-2-2b-----|
D|---------------------|-------------------------|
A|---------------------|-------------------------|
E|---------------------|-------------------------|

Verse1: (Do the intro, paulit-ulit lng)

You love to hate, you love to hate: he never cares…
You made me sit without a chair…
My tongue is burning but still I lie…
Oh when you smile oh, oh yeah I cry…

Chorus: (wla munang ibang background music d2, piano lng)

E|-----------------|
B|----3-------4----|
G|----2-------3----|
D|-----------------|
A|-----------------|
E|-----------------|
      Cut me out…
E|-----------------|
B|----3-------4----|
G|----2-------3----|
D|-----------------|
A|-----------------|
E|-----------------|
      Cut me out…

Interlude:

Guitar1: (Sasabay lang sa bass)
E|---------------------|-------------------|
B|-----3---3-----------|-----3---3---------|
G|---2-2-2-2-2--3-2b---|---2-2-2-2-2--3-2b-| (2x)
D|---------------------|-------------------|
A|---------------------|-------------------|
E|---------------------|-------------------|

Guitar2:
E|-----------------------------|---------------------------|
B|--3---3---3---3-4-4s6-4-4-3--|----3---3---3--------------|
G|----2---2---2----------------|--2---2---2---2-3s5-3-3-2--|
D|-----------------------------|---------------------------|
A|-----------------------------|---------------------------|
E|-----------------------------|---------------------------|

E|-------------------------------------|
B|----3---3-----------------3-3-3-3-3--|
G|--2---2---2h3—0h2-3s5-3-2-2-2-2-2----|
D|-------------------------------------|
A|-------------------------------------|
E|-------------------------------------|

Verse2: (Ganun parin, ung sa intro, paulit-ulit)
 
I’m proud of you my little boy…
That’s what he speaks; I’m not your toy…
I’m soul searching but still I’m lost…
I’m dying now without a cause…

Chorus:

E|-------------------------------------|
B|-------------------------------------|
G|----77777-77777----77777-77777--3~---|
D|----77777-77777----77777-77777--3~---|
A|----55555-55555----55555-55555--1~---|
E|-------------------------------------|
      Cut…        me out…
E|-------------------------------------|
B|-------------------------------------|
G|----77777-77777----77777-77777--3~---|
D|----77777-77777----77777-77777--3~---|
A|----55555-55555----55555-55555--1~---|
E|-------------------------------------|
      Cut…        me out…
E|-------------------------------------|
B|-------------------------------------|
G|----77777-77777----77777-77777--3~---|
D|----77777-77777----77777-77777--3~---|
A|----55555-55555----55555-55555--1~---|
E|-------------------------------------|
      Cut, cut…   me out…
E|-------------------------------------|
B|-------------------------------------|
G|----77777-77777----77777-77777--3~---|
D|----77777-77777----77777-77777--3~---|
A|----55555-55555----55555-55555--1~---|
E|-------------------------------------|
      Cut, cut…   me out…

Interlude: Dm-G-F-Bb (2x)

Bridge:

Dm                                          G
Cut me out, play me out and you don’t even know what this is all about…
                      F                                          Bb                  Dm
You think I’m feeling better, I never say never, you always say, a-ahhh-ahhh-ahhh-ahhh…
                     G                                       F                     Bb     Dm G
Verbally abuse me? I just kill the pain and I am never say me, call me, call you burn my soul…
   F      Bb    Dm G        F   Bb   Dm    G F Bb     Dm-G-F-Bb (2x)
Evil, evil, evil clown, evil clown, evil clown…

Verse3:

    Dm                                 G
You love to hate, you love to hate: he never cares…
    Dm              G
You made me sit without a chair…
    Dm                    G
My tongue is burning but still I lie…
    Dm                    G         Dm-G (3x) Dm–
Oh when you smile oh, oh yeah I cry…………………………………




Chorus:

E|-------------------------------------|
B|-------------------------------------|
G|----77777-77777----77777-77777--3~---|
D|----77777-77777----77777-77777--3~---|
A|----55555-55555----55555-55555--1~---|
E|-------------------------------------|
      Cut…        me out…
E|-------------------------------------|
B|-------------------------------------|
G|----77777-77777----77777-77777--3~---|
D|----77777-77777----77777-77777--3~---|
A|----55555-55555----55555-55555--1~---|
E|-------------------------------------|
      Cut…        me out…
E|-------------------------------------|
B|-------------------------------------|
G|----77777-77777----77777-77777--3~---|
D|----77777-77777----77777-77777--3~---|
A|----55555-55555----55555-55555--1~---|
E|-------------------------------------|
      Cut, cut…   me out…
E|-------------------------------------|
B|-------------------------------------|
G|----77777-77777----77777-77777--3~---|
D|----77777-77777----77777-77777--3~---|
A|----55555-55555----55555-55555--1~---|
E|-------------------------------------|
      Cut, cut, cut, cut, me out…




Interlude: Dm-G-F-Bb (2x)




Coda:

Dm   G   F   Bb
Evil clown!!!!
Dm   G   F   Bb                                      Dm-G-F-Bb (2x)
Evil clown!! Heee!! Yeee!!! Yeee!!! Yeee!!! Yeee!!!!!




Outro: (magkasabay ung 2 guitar pero ung 2nd guitar lng ga2wa nung 2nd part)

                 1st Part                                           2nd Part
E|---------------------------------------------------------|---------------------|
B|-3-3-3-3--4444-3-3-3-3-4444-3-3-3-3-4444-3-3-3-3-4444-3~-|---------------------|
G|-2-2-2-2--3333-2-2-2-2-3333-2-2-2-2-3333-2-2-2-2-3333-2~-|-2h3-0h2-------------|
D|---------------------------------------------------------|---------3-1-0~------|
A|---------------------------------------------------------|---------------------|
E|---------------------------------------------------------|---------------------|

Pakirate puh… ^^
Tap to rate this tab
 
# A B C D E F G H I J K L M N O P Q R S T U V W X Y Z