Song name
# A B C D E F G H I J K L M N O P Q R S T U V W X Y Z

Rivermaya - Kisapmata tab

Kisapmata Lead - Rivermaya

I want to share my version. 

This is correct. Sinasabayan ko yung mismong record while making this tab very carefully.

Paki rate na lng thanks...

Note: Paki-estimate na lang ang timing...

Played with Distortion and Delay

/ - Slide up
\ - slide down
h - hammer
p - pull off

E|-/14p10-14p10------------------------------------|
B|------------------------8/7-8--10/12\10-10-------|
G|--------------14p10h14---------------------------|
D|-------------------------------------------------|
A|-------------------------------------------------|
E|-------------------------------------------------|
 
E|-------------------------------------------------------10---10-10--10-10-|
B|-8p7-8p7-8p7-8p7-8p7-8p7-8p7-8p7-8p7-8p7--->done fast--------------------|
G|-------------------------------------------------------------------------|
D|-------------------------------------------------------------------------|
A|-------------------------------------------------------------------------|
E|-------------------------------------------------------------------------|

E|-/14p10-14p10------------------------------------|
B|------------------------8/7-8--10/12\10-10-------|
G|--------------14p10h14---------------------------|
D|-------------------------------------------------|
A|-------------------------------------------------|
E|-------------------------------------------------|

E|-------------------------------------------------|
B|-8h10p8-7h8p7-5h7p5-3h5p3-2h3p2------------------|
G|--------------------------------4h6p4~~~~sustain-|
D|-------------------------------------------------|
A|-------------------------------------------------|
E|-------------------------------------------------|

E|--------------------------------------------------------|
B|--------------------------------------------------------|
G|-2-2-/7-7---/7-7-/9-9---/9-9-/11-11---12p11-11--12p11/14|
D|--------------------------------------------------------|
A|--------------------------------------------------------|
E|--------------------------------------------------------|

E|--------------------------------------------------------|
B|-------------------/15-15--17-17\14-14-14-14\8-8-7-7-7/8|
G|-2-2-/7-7---/14-14--------------------------------------|
D|--------------------------------------------------------|
A|--------------------------------------------------------|
E|--------------------------------------------------------|

Tabbed By: Ken (dk2a)
Tap to rate this tab
# A B C D E F G H I J K L M N O P Q R S T U V W X Y Z