Song name
# A B C D E F G H I J K L M N O P Q R S T U V W X Y Z

Rivermaya - Himala tab

E|--------|-----0---------0---------0---------0-----|-----0---------0---------0---------0-----|
B|--------|--------3---------3---------3------------|--------3---------3---------3------------|
G|--------|------------2---------2---------2-----2--|-0----------0---------0---------0-----0--|
D|--------|-4---------------------------------------|-----------------------------------------|
A|--------|-----------------------------------------|-----------------------------------------|
E|--------|-----------------------------------------|-----------------------------------------|


E|-----5---------5---------5---------5-----|-----5---------5---------5---------5-----|
B|--------3---------3---------3------------|--------3---------3---------3------------|
G|------------2---------2---------2-----2--|------------2---------2---------2-----2--|
D|-0---------------------------------------|-0---------------------------------------|
A|-----------------------------------------|-----------------------------------------|
E|-----------------------------------------|-----------------------------------------| 3x

Chorus:

|-2------2--2--0--2------2--2--0--2---2---|
|-3------3--3--0--3------3--3--0--3---3---|
|-2------2--2--0--2------2--2--0--2---2---|
|-0------0--0--0--0------0--0--0--0---0---|
|-----------------------------------------|
|-----------------------------------------|


E|-3------3--3--0--3------3--3--0--3---3---|-2------2--2--0--2------2--2--0--2---2---|
B|-3------3--3--0--3------3--3--0--3---3---|-2------2--2--0--2------2--2--0--2---2---|
G|-0------0--2--0--0------0--0--0--0---0---|-2------2--2--0--2------2--2--0--2---2---|
D|-0------0--0--0--0------0--0--0--0---0---|-4------4--4--0--4------4--4--0--4---4---|
A|-2------2--2-----2------2--2-----2---2---|-4------4--4-----4------4--4-----4---4---|
E|-3------3--3-----3------3--3-----3---3---|-2------2--2-----2------2--2-----2---2---|


E|-3------3--3--0--3------3--3--0--3---3---|-3------|
B|-3------3--3--0--3------3--3--0--3---3---|-3------|
G|-0------0--2--0--0------0--0--0--0---0---|-0------|
D|-0------0--0--0--0------0--0--0--0---0---|-0------|
A|-2------2--2-----2------2--2-----2---2---|-2------|
E|-3------3--3-----3------3--3-----3---3---|-3------|


INTERLUDE:

E|-----5------5--5------5--5------5--5-----|
B|--------3---3-----3---3-----3---3--------|
G|------------2---------2---------2-----2--|
D|-0------------------------------------0--|
A|-----------------------------------------|
E|-----------------------------------------|

VERSE 2: DO VERSE1 PLUCK PATTERN

CHORUS:

E|-2------2--2--0--2------2--2--0--2---2---|-3------3--3--0--3------3--3--0--3---3---|
B|-3------3--3--0--3------3--3--0--3---3---|-3------3--3--0--3------3--3--0--3---3---|
G|-2------2--2--0--2------2--2--0--2---2---|-0------0--2--0--0------0--0--0--0---0---|
D|-0------0--0--0--0------0--0--0--0---0---|-0------0--0--0--0------0--0--0--0---0---|
A|-----------------------------------------|-2------2--2-----2------2--2-----2---2---|
E|-----------------------------------------|-3------3--3-----3------3--3-----3---3---|


E|-2------2--2--0--2------2--2--0--2---2---|-3------3--3--0--3------3--3--0--3---3---|-2------|
B|-2------2--2--0--2------2--2--0--2---2---|-3------3--3--0--3------3--3--0--3---3---|-3------|
G|-2------2--2--0--2------2--2--0--2---2---|-0------0--2--0--0------0--0--0--0---0---|-2------|
D|-4------4--4--0--4------4--4--0--4---4---|-0------0--0--0--0------0--0--0--0---0---|-0------|
A|-4------4--4-----4------4--4-----4---4---|-2------2--2-----2------2--2-----2---2---|--------|
E|-2------2--2-----2------2--2-----2---2---|-3------3--3-----3------3--3-----3---3---|--------|


SOLO PART: 
		    		A			G
E|--------|--------|-5---------------------------|-----------------------------|
B|--------|--------|-5--------------5------------|-----------------------------|
G|-7------|-7------|-5-----4--5--7-----7---------|-7--5--4-----4--5--7---------|
D|-7------|-7------|-7--7------------------------|----------7------------------|
A|-5------|-5------|-7---------------------------|-----------------------------|
E|--------|--------|-----------------------------|-----------------------------|

		F					F
E|--------------------------------------|-----------------------------------------|
B|----------------------------------10--|-5---5-------5---5-----------------------|
G|-5--4-----------4--5----5----5--5-----|--------------------7--5--4--5-----------|
D|-------7--5--7------------------------|--------------------------------5--7-----|
A|--------------------------------------|--------------------------------------5--|
E|--------------------------------------|-----------------------------------------|

		A			G				F		
E|---------8---7----5----5--8--|-10--8---7---5----3--------|-----------------------|
B|-----------------------------|---------------------------|-5---6---6---5---------|
G|-----------------------------|---------------------------|-----------------5-----|
D|-----------------------------|---------------------------|-----------------------|
A|-7---------------------------|---------------------------|-----------------------|
E|-----------------------------|---------------------------|-----------------------|

	F
E|---------8----8---------|
B|------------------------|
G|-------------------5----|
D|------------------------|
A|------------------------|
E|------------------------|

CHORUS:
VERSE: (PLUCKING)


END WITH D9 - XX0230
Tap to rate this tab
# A B C D E F G H I J K L M N O P Q R S T U V W X Y Z