Rivermaya - Awit Ng Kabataan tab

rivermaya_awit ng kabataan

anterxiv@yahoo.com

(notepad)



solo:PV POWER W/CHORUS

e|-------------------------------------------------------------------------------|
B|--/12-13-15-17f-15^--13-12-13-15----------------------------15f-15^------------|
G|---------------------------------12-------12----14----16-14--------------------|
D|------------------------------------12h14----14----12--------------------------|
A|-------------------------------------------------------------------------------|
E|-------------------------------------------------------------------------------|



e|-----------------------------------15------------------------------------------|
B|--12-13-18f-16f-16-13--13h15-13-15-----15h17-1h17-15h17-15h17-15h17--15h17-----|
G|-------------------------------------------------------------------------------|
D|-------------------------------------------------------------------------------|
A|-------------------------------------------------------------------------------|
E|-------------------------------------------------------------------------------|




e|--21f-21f-h22-21f--18f-18f-18-17-18f--18f-18f-15^------------------------------|
B|-------------------------------------------------------------------------------|
G|-------------------------------------------------------------------------------|
D|-------------------------------------------------------------------------------|
A|-------------------------------------------------------------------------------|
E|-------------------------------------------------------------------------------|

e|--15h19-15-15h19-15------------------------------------------------------------|
-B|--------------------15h19-15-15h19-15-----------------12-15^------------------|
G|---------------------------------------12h14-12--12/14-------------------------|
D|-------------------------------------------------------------------------------|
A|-------------------------------------------------------------------------------|
E|-------------------------------------------------------------------------------|


e|--15h17t19-15h17t19-15h17t19--10h12t15--15h17t19-15h17t19-15h17t19-15h17t19----|
B|-------------------------------------------------------------------------------|
G|-------------------------------------------------------------------------------|
D|-------------------------------------------------------------------------------|
A|-------------------------------------------------------------------------------|
E|-------------------------------------------------------------------------------|


e|------------------------------------------------3h5-3--------------------------|
B|--15h17t19-15h17t19------------------------------------------------------------|
G|--------------------5h17t19-15h17t19--12h14t16---------------------------------|
D|-------------------------------------------------------------------------------|
A|-------------------------------------------------------------------------------|
E|-------------------------------------------------------------------------------|

outro:
e|----------------------------------------------------------15h17-15h17-17f-17-15-17f------|
B|--17f-15^--15-13-12-13-15-------------------15f-15--15h17--------------------------------|
G|--------------------------12-------12----12----------------------------------------------|
D|-----------------------------12h14----14-------------------------------------------------|
A|-----------------------------------------------------------------------------------------|
E|-----------------------------------------------------------------------------------------|


e|--15h17t19-15h17t19-15h17t19-15h17t19--3^--chords 2 fade-----------------------|
B|-------------------------------------------------------------------------------|
G|-------------------------------------------------------------------------------|
D|-------------------------------------------------------------------------------|
A|-------------------------------------------------------------------------------|
E|-------------------------------------------------------------------------------|


legend:

	h - hammer
	t - tap
	f - full bend
	^ - vibrate

ppg6

it is not a 100% correct its just only an idea..
Tap to rate this tab
 
# A B C D E F G H I J K L M N O P Q R S T U V W X Y Z