Song name
# A B C D E F G H I J K L M N O P Q R S T U V W X Y Z

Rivermaya - Buksan tab

Buksan
Intro:
e|-2-3-2----------|  |----------------------------|
B|-------3--------|  |----------------------------|
G|---------4-2----|  |-/7-5-4-----4-/7-/7-5-4-----|
D|-------------5--|2X|--------5-7-------------5-7-|
A|----------------|  |----------------------------|
E|----------------|  |----------------------------|

e|-2-3-2----------|  |----------------------------|
B|-------3--------|  |----------------------------|
G|---------4-2----|  |-/7-5-4-----4-/7-/7-5-4-----|
D|-------------5--|2X|--------5-7-------------5-7-|
A|----------------|  |----------------------------|
E|----------------|  |----------------------------|

e|-2-3-2----------|  |--------------------------------|
B|-------3--------|  |--------------------------------|
G|---------4-2----|  |-/7-5-4-----4-/7-/7-5-4---------|
D|-------------5--|2X|--------5-7-------------5-----5-|
A|----------------|  |--------------------------5-7---|
E|----------------|  |--------------------------------|


Stanza 1

  G                   Bm
Pinid ang pintuan mistulang ding-ding
  C                  Am           D7
walang sinuman ang maaaring tanggapin
  G               Bm7
anong pumipigil anong nag-babawal 
  C               Am            B
sa sariling mundo bat di ka lumaya

chorus:

  G                    Bm
buksan ang iyong mga mata 
             C
kahit may luha 
Am     D7          G
mamahalin parin kita 
       Bm7
at tutulungang
    C
lumaya

stanza2:

  G                   Bm
basong may tubig lagyan mong muli 
  C                  Am           D7
aapaw dahil wala ng silid 
  G               Bm7
pusong may galit di maaring umibig 
  C               Am        B
bulag sa wasto alipin ng isip

chorus:

  G                    Bm
buksan ang iyong mga mata 
             C
kahit may luha 
Am     D7          G
mamahalin parin kita 
       Bm7
at tutulungang
    C
lumaya

Solo:
e|-9-10-12--------------------10-9--------/9-/9-/10-/10-12~-|
B|---------12-10---/12-12-12~------12-10~-------------------|
G|---------------/9-----------------------------------------|
D|----------------------------------------------------------|
A|----------------------------------------------------------|
E|----------------------------------------------------------|

stanza2:

  A                   C#m
basong may tubig lagyan mong muli 
  D                  Bm           E7
aapaw dahil wala ng silid 
  A               C#m7
pusong may galit di maaring umibig 
  D               Bm        C#
bulag sa wasto alipin ng isip



chorus:2x

  A                    C#m
buksan ang iyong mga mata 
             D
kahit may luha 
  Bm7     E7          A
mamahalin parin kita 
       C#m
at tutulungang
    D
lumaya....


Tap to rate this tab
 
# A B C D E F G H I J K L M N O P Q R S T U V W X Y Z