Rivermaya - Ambotsa tab

Ambotsa Tab by Rivermaya
Tabbed by: eckounplugged (echo_paul_08@yahoo.com)

Intro:
Guitar 2: (Jayson Fernandez)
A – G – E – G (3x) A – G – E
(Repeat 2x)

Guitar 1: (Mike Elgar)

   A     G    E        G  
e:-5-5---3---0-0-0---3-3-3-------------------------------|
B:-5-5---3---0-0-0---3-3-3-------------------------------|
G:-6-6---4---1-1-1---4-4-4-------------------------------|2x
D:-7-7---5---2-2-2---5-5-5-------------------------------|
A:-7-7---5---2-2-2---5-5-5-------------------------------| 
E:-5-5---3---0-0-0---3-3-3-------------------------------|

e:--9---9----3---0-0-0---3-3-3---------------------------|
B:--10--10---3---0-0-0---3-3-3---------------------------|
G:--9---9----4---1-1-1---4-4-4---------------------------|2x
D:-----------5---2-2-2---5-5-5---------------------------|
A:-----------5---2-2-2---5-5-5---------------------------| 
E:-----------3---0-0-0---3-3-3---------------------------|

e:-------------------------------------------------------|
B:-------------------------------------------------------|
G:-------------------------------------------------------|4x
D:-----------------5-------------------------------------|
A:------3----3-5-7---5-5h7-5-----------------------------| 
E:--5-5----5-----------------7-5-------------------------|

Verse 1:

A
Ano ba talaga?
             G      Bm      
Kanan o biglang kaliwa?
A
Friends lang nga talaga
                           G       Bm
Kahit ka-holding hands under the table
A					   G-Bm
Hindi ako nagpa-pa hard to get
           A
Pero kung di mo ma-get
                   G-Bm
Let’s just forget

CHORUS: D - C - G
Ambot sa imo
(Repeat 4x)
Intro Chords:
e:-------------------------------------------------------|
B:-------------------------------------------------------|
G:-------------------------------------------------------|4x
D:-----------------5-------------------------------------|
A:------3----3-5-7---5-5h7-5-----------------------------| 
E:--5-5----5-----------------7-5-------------------------|

Verse 2: A – C – D – F# - G
A – C – D – E - G
Wala akong paki sa ‘yo
Ano kayang ginagawa mo?
Ayaw na nga kitang makita
Kelan ba tayo magsasama?
A
‘Wag mo nakong mahalin
                 G    Bm
Pero wag naman akong limutin
A
‘Wag mo nakong mahalin
                 G    Bm
Pero wag naman akong limutin
G-
Ok na eh
G-
Ok na eh

CHORUS: D - C - G
Ambot sa imo
(Repeat 4x)

Guitar Solo: D – C – G (4x)


BRIDGE: 
D
Eh-yow!
A
Nag unsaman ka?


CHORUS: D - C - G
Aambot sa imo
(Repeat 4x)
D – C - G
Ewan ko ba sa iyo, sa iyo
Ewan ko bas a ‘yo
It’s not you it’s me

Intro Chords: A – G – E – G
e:-------------------------------------------------------|
B:-------------------------------------------------------|
G:-------------------------------------------------------|4x
D:-----------------5-------------------------------------|
A:------3----3-5-7---5-5h7-5-----------------------------| 
E:--5-5----5-----------------7-5-------------------------|

I know right?

Tap to rate this tab
 
# A B C D E F G H I J K L M N O P Q R S T U V W X Y Z