Song name
# A B C D E F G H I J K L M N O P Q R S T U V W X Y Z

Rivermaya - Balisong tab

-------------------------------------------------------------------------------
                             Balisong - Rivermaya                  Tue/08/2012
-------------------------------------------------------------------------------
Tabbed by: Ric Anthony Panaligan 
Email: Mus1ccure@live.com

100% correct. as seen on their music video
I figured out how they play the guitar parts.
So good luck, i can assure you that this tab is more accurate than others.


Tuning: Standard

Intro: Piano

your face...

then the verse part where the guitar comes in:



 Verse 1: Guitar (Clean)

 you mesmerize me with diamond eyes...
                      ^v^v
e|--------------------xxxx------|
B|--------------------xxxx------|
G|--------------------xxxx------| repeat 8 times
D|--------10---8~~----xxxx------|
A|-------8------------xxxx------|
E|-----10------11~~---xxxx------|


 Chorus: Guitar (Acoustic)

 listen to the strumming pattern.
                                          
e|---------------3------6-----|
B|-6------1------4------7-----| 
G|-7------2------5------8-----| repeat 2 times
D|-8------3------5------8-----|
A|-8------3------3------6-----|
E|-6------1-------------------|

 and more.. part
                      ^v^v
e|--------------------xxxx------|
B|--------------------xxxx------|
G|--------------------xxxx------| repeat 4 times
D|--------10---8~~----xxxx------|
A|-------8------------xxxx------|
E|-----10------11~~---xxxx------|

 Verse 2: Guitar (Clean)
 to speak or not to...
                      ^v^v
e|--------------------xxxx------|
B|--------------------xxxx------|
G|--------------------xxxx------| repeat 8 times
D|--------10---8~~----xxxx------|
A|-------8------------xxxx------|
E|-----10------11~~---xxxx------|

 Chorus 2: Guitar (Acoustic)

 listen to the strumming pattern.
                                          
e|---------------3------6-----|
B|-6------1------4------7-----| 
G|-7------2------5------8-----| repeat 2 times
D|-8------3------5------8-----|
A|-8------3------3------6-----|
E|-6------1-------------------|

 Bridge: Guitar (Acoustic) the instrumentals part

 listen to the strumming pattern.
                                          
e|---------------3------6-----|
B|-6------1------4------7-----| 
G|-7------2------5------8-----| repeat 2 times
D|-8------3------5------8-----|
A|-8------3------3------6-----|
E|-6------1-------------------|

Chorus 3: Guitar (Acoustic)

 listen to the strumming pattern.
                                          
e|---------------3------6-----|
B|-6------1------4------7-----| 
G|-7------2------5------8-----| repeat 4 times
D|-8------3------5------8-----|
A|-8------3------3------6-----|
E|-6------1-------------------|

 Outro:
 Back to piano, bass


Hope you like my tab \(^o^)/ 
you may also add me on facebook.
------------------------------------------------------------------------------------
------------------------------------------------------------------------------------

Your face
Lights up the sky on the highway
Someday
You share your world with me
Someday

You mesmerize me, with diamond eyes
I try to fool myself to think I'll be alright
But I am losing all control, my mind, my heart, my body and my soul.

Never in my life have I been more sure
So come on up to me and close the door
Nobody's made me feel this way before
You're everything I wanted and more
 
To speak or not too, where to begin
The great delemas  I'm finding myself in
For all I know you only see me as a friend
I try to tell myself wake up fool
This fairy tale's got to end

Never in my life have a been more sure
So come on up to me and close the door
Nobody's made me feel this way before
You're everything I wanted...

Never in my life have I been more sure
So come on up to me and close the door
Nobody's made me feel this way before
You're everything I wanted and more

You're everything I wanted.


************************************

| ^   down
| v   up
| ~   vibrato
| x   Mute note

************************************
Tap to rate this tab
# A B C D E F G H I J K L M N O P Q R S T U V W X Y Z