Guitaretab - guitar tabs
Song name
# A B C D E F G H I J K L M N O P Q R S T U V W X Y Z

Rivermaya - Kisapmata tab

Song Title: Kisapmata
tabbed by: Emerson (butototng24@yahoo.com)


INTRO: D-Em-A-G
--------5------------------------------5------------------------|
-----3---------3-----3-------------3-----------3----------------|
--2--------2------2-----2--0---2----------2---------2-----0-----|
----------------------------------------------------------------|
----------------------------------------------------------------|
----------------------------------------------------------------|
   D          Em      A              G
Nitong umaga lang, pagka lambing-lambing
          D           Em            A    G
Ng iyong mga matang hayup kung tumingin
        D        Em   A            G
Nitong umaga lang, pagka galing-galing
----------------------------------------------------------------|
-----------------3----------------------3-----------------------|
--------2---------------2-----------------0---------------------|
----------------------------------------------------------------|
----------------------------------------------------------------|
----------------------------------------------------------------|
             D           Em        A  G
Ng iyong sumpang walang aawat sa atin.
------------------------------------------------------3-------3-|
--------------------3-------------------3---------------3-------|
----------------2--------------------2-----2--0-----------4-----|
----------------------------------------------------------------|
----------------------------------------------------------------|
----------------------------------------------------------------|

Chorus:
         D            Em          A          G
O kay bilis namang maglaho ng pag-ibig mo sinta
-----------------0-----------0----------0-----------3-----------|
---------------3---3-------3---3------3---3-------3---3---------|
-------------2-----------0----------2-----------4---------------|
-----------0-----------2----------2-----------5-----------------|
----------------------------------------------------------------|
----------------------------------------------------------------|

  D              Em         A  G
Daig mo pa ang isang kisapmata
-----------------0-----------0----------0-----------3-----------|
---------------3---3-------3---3------3---3-------3---3---------|
-------------2-----------0----------2-----------4---------------|
-----------0-----------2----------2-----------5-----------------|
----------------------------------------------------------------|
----------------------------------------------------------------|

 D               Em            A             G
Kanina'y nariyan lang o ba't bigla namang nawala
-----------------0-----------0----------0-----------3-----------|
---------------3---3-------3---3------3---3-------3---3---------|
-------------2-----------0----------2-----------4---------------|
-----------0-----------2----------2-----------5-----------------|
----------------------------------------------------------------|
----------------------------------------------------------------|

  D              Em         A                 G pause
Daig mo pa ang isang kisapmata.
-----------------0-----------0----------0-----3-----------------|
---------------3---3-------3---3------3---3---3-----------------|
-------------2-----------0----------2---------4-----------------|
-----------0-----------2----------2-----------5-----------------|
----------------------------------------------------------------|
----------------------------------------------------------------|

INTERLUDE: D-Em-A-G
[ Tab from: http://www.guitaretab.com/r/rivermaya/31836.html ]
--------5-----------------------------5---5---------------------|
-----3---------3----------------3------------3------------------|
--2--------2------2----0---2--------------------2-----0---------|
----------------------------------------------------------------|
----------------------------------------------------------------|
----------------------------------------------------------------|
  D          Em      A           G
Kani-kanina lang, pagka ganda-ganda
        D           Em            A  G
Ng pagkasabi mong sana'y tayo na nga
       D        Em   A         G
Kani-kanina lang, pagka saya-saya
-----------------------------------------------------------------------------|
-----------------------------------------------------------------------------|
-----------9-9-9-9-9-9--7--9-9-9-9-9-9--7---6-6-6-6-6-6--7---4-4-4-4-4-42---|
-----------------------------------------------------------------------------|
-----------------------------------------------------------------------------|
-----------------------------------------------------------------------------|
          D            Em          A   G
Ng buhay kong bigla na lamang nag-iba.
----------------------------------------------------------------|
-----------------------------------------3-----3-----3----------|
--------------------------------------0-----0-----0-------------|
------------------------------------0---------------------------|
----------------------------------------------------------------|
----------------------------------------------------------------|


Repeat Chorus except last word

          A      G   D  Em   A   G
...kisapmata ha haa, ha haa, ha haa

INSTRUMENTAL: D-Em-A-G (4X)

   D          Em      A              G
Nitong umaga lang, pagka lambing-lambing
--------5-------------------------------------------------------|
----3-----------------------------------------------------------|
-2--------------------------------------------------------------|
----------------------------------------------------------------|
----------------------------------------------------------------|
----------------------------------------------------------------|
   D          Em      A            G             D
Nitong umaga lang, pagka galing-galing galing-galing
--------5-------------------------------------------------------|
----3-----------------------------------------------------------|
-2--------------------------------------------------------------|
----------------------------------------------------------------|
----------------------------------------------------------------|
----------------------------------------------------------------|

  D          Em      A           G
Kani-kanina lang, pagka ganda-ganda
  D          Em      A         G
Kani-kanina lang, pagka saya-saya

Repeat Chorus

          A      G   D  Em   A   G
...kisapmata ha haa, ha haa, ha haa

   D                       Em                     A
--14-14-14-14-14-14-14---12-12-12-12-12-12-12---14-14-14-14-14-14-14------|
--------------------------------------------------------------------------|
--------------------------------------------------------------------------|
--------------------------------------------------------------------------|
--------------------------------------------------------------------------|
--------------------------------------------------------------------------|

  G                   D                        Em
--15-15-15-15-15-15-15---14-14-14-14-14-14-14-------12-12-12-12-12-12-12--|
--------------------------------------------------------------------------|
--------------------------------------------------------------------------|
--------------------------------------------------------------------------|
--------------------------------------------------------------------------|
--------------------------------------------------------------------------|

  A                G                     D
----17----17----17----17---17--17--------2--------------------------------|
-15----15----15----15--------------------3--------------------------------|
-----------------------------------------2--------------------------------|
--------------------------------------------------------------------------|
--------------------------------------------------------------------------|
--------------------------------------------------------------------------|


***Paki rate na lang po***

any questions? emaill me at Butotong24@yahoo.com
Related for Kisapmata tab