Song name
# A B C D E F G H I J K L M N O P Q R S T U V W X Y Z

Rivermaya - Bye Bye Na chords

Highlighted       Show chord diagrams
        INTRO:
(2X)
e --------------------------------------|
B -------------10-----------------------|
G -----9-11-12----12-11-9----9-11-12-9--|
D --10--------------------10------------|
A --------------------------------------|
E --------------------------------------|
(2X)
e -----------------|
B -------------10--|
G --------9-10-----|
D --10-12----------|
A -----------------|
E -----------------|



C         Am
eto na ang gabi
Em       G      C
na ikaw ay aalis
   Am        Em - G
at iiwan mo ako

C    Am      Em
sa lahat ng gabi
G            C
ito ang ayaw dumating
     Am       Em - G
sana ay umaga na

chorus:
C
tatawagan mo parin ba 'ko
Am
susulatan mo pa ba ako
Em
tayo parin ba 'ng dawala
G
kahit ...na

(slow strumming)
C
bye bye na
Am
aalis ka na
Em
bye bye na rin ba
G
sa atin alaala

(Repeat INTRO)

(do the SAME Chords)
meron kang makikita

mas higit pa sa akin

pag ika'y malayo na

(repeat chorus)

C       Am            Em              G
wag mong lilimutin na nandito lang ako
C           Am
hawak ang larawan mo

(repeat chorus)


 C/Am/Em/G
bye bye na

bye bye na

bye bye na rin ba

sa atin alaala

C/Am/Em/G
bye bye naaaaaaaaaaa……
bye bye naaaaaaaaaaa……



Thanks for viewing my tab. this is my first time posting tab in ultimate-guitar. i been 
playing for 2 years. i know im not that good guitarist. nothin just saying. hmm.. pls 
rate. thanks
Tap to rate this tab
# A B C D E F G H I J K L M N O P Q R S T U V W X Y Z