Song name
# A B C D E F G H I J K L M N O P Q R S T U V W X Y Z

Rivermaya - Wag Na Init Ulo Baby tab

  SUBMITTED BY: JEFFREY FORBES   (ASTIG)

       KINAPA KO LANG TO KAYA KUNG MAY PROBLEMA (PSYCHOLOVE23@YAHOO.COM)

INTRO:

     --3333--7777--2222--22--33---------|
     --3333--8888--3333--22--55---------|
     --4444--9999--4444------55---------|
     -----------------------------------|
     -----------------------------------|
     -----------------------------------|

GUITAR 2:

     ---------------------------------|
     ---------------------------------|
     ---------------------------------|
     -----5----------4-5-7--5-4-------|
     ---5---5--7--5-------------5-5-3-|
     ---------------------------------|
Tap to rate this tab
# A B C D E F G H I J K L M N O P Q R S T U V W X Y Z