Guitaretab - guitar tabs
Song name
# A B C D E F G H I J K L M N O P Q R S T U V W X Y Z

Rivermaya - Gising Na tab

Song: Gising na
Artist: Rivermaya
Album: Tuloy ang Ligaya
Standard tuning

Intro:

--------------------------------|
------3------3-----3------3-----|
----2--2------2-----0---0--0----|		4x
--0--------------------2--------|
-----------0-----0--------------|
----------3-----2---------------|

--2222--0000--0000--0000----|
--3333--3333--3333--3333----|
--2222--2222--0000--0000----|			4x
--0000--0000--0000--2222----|
--0000--0000--0000--0000----|
--xxxx--3333--2222--xxxx----|

Verse:

Kapit bisig...pikit mata....

--------------------------------|
------3------3-----3------3-----|
----2--2------2-----0---0--0----|
--0--------------------2--------|		8x
-----------0-----0--------------|
----------3-----2---------------|

refrain:
gumising ka2x		   bakit tulog ka pa?
--2222--3333----------------2222--0000------|
--2222--0000----------------3333--5555------|
--2222--0000----------------2222--6666------|
--4444--0000----------------0000--7777------|
--2222--2222----------------0000--0000------|
--xxxx--3333----------------xxxx--xxxx------|

umaga na2x			umiikoy ang mundo
--2222--3333----------------0000--|
--2222--0000----------------0000--|
--2222--0000----------------1111--|
--4444--0000----------------2222--|
--2222--2222----------------2222--|
--xxxx--3333----------------0000--|

baka maiwan tayo...
--3~~--
--3~~--
--3~~--	(pagkatapos I-strum,pwede nyo rin I-plucking if u want)
--2~~--
--0~~--
--x----

Chorus:

Gising na!!!
--2222--0000--0000--0000----|
--3333--3333--3333--3333----|
--2222--2222--0000--0000----|	4x
--0000--0000--0000--2222----|
--0000--0000--0000--0000----|
--xxxx--3333--2222--xxxx----|


interlude:
--2222--0000--0000--0000----|
--3333--3333--3333--3333----|
--2222--2222--0000--0000----|	4x
--0000--0000--0000--2222----|
--0000--0000--0000--0000----|
--xxxx--3333--2222--xxxx----|

repeat verse
tapos may konting pasok na gitara bago refrain, ganito yun:

---------------------------|
------3------3-----3---3---|
----2--2------2-----0--0---|    (pagkatapos gawin yung last chord ng riff
--0--------------------2---|    na ito, I-dead string ang lahat)
-----------0-----0---------|
----------3-----2----------|

repeat refrain
repeat chorus
[ Tab from: http://www.guitaretab.com/r/rivermaya/34848.html ]
interlude:
--2222--0000--0000--0000----|
--3333--3333--3333--3333----|
--2222--2222--0000--0000----|	4x
--0000--0000--0000--2222----|
--0000--0000--0000--0000----|
--xxxx--3333--2222--xxxx----|


adlib:
----------------------------------------------------|
--777------------------5h7-57s9--7--5h7--5--7s97--|
------6666---44444444-------------------------------|
----------------------------------------------------|
----------------------------------------------------|
----------------------------------------------------|

------------------------|
--777-------------------|
------666---44444444----|
------------------------|
------------------------|
------------------------|


umiikot ang mundo
--0000--|
--0000--|
--1111--|
--2222--|
--2222--|
--0000--|

baka maiwan tayo...
--3~~--
--3~~--
--3~~--	(pagkatapos I-strum,pwede nyo rin I-plucking if u want)
--2~~--
--0~~--
--x----

bridge:
may kasamang piano
--------------------------------|
------3------3-----3------3-----|
----2--2------2-----0---0--0----|		4x
--0--------------------2--------|
-----------0-----0--------------|
----------3-----2---------------|

mahinang kumakanta si rico ng "gising na"
--------------------------------|
------3------3-----3------3-----|
----2--2------2-----0---0--0----|		4x
--0--------------------2--------|
-----------0-----0--------------|
----------3-----2---------------|

palakas ng palakas boses ni rico (may kasamang drums)
--------------------------------|
------3------3-----3------3-----|
----2--2------2-----0---0--0----|		4x
--0--------------------2--------|
-----------0-----0--------------|
----------3-----2---------------|

Gising na!!!
--2222--0000--0000--0000----|
--3333--3333--3333--3333----|
--2222--2222--0000--0000----|	4x
--0000--0000--0000--2222----|
--0000--0000--0000--0000----|
--xxxx--3333--2222--xxxx----|

--2222--0000--0000--0000----|
--3333--3333--3333--3333----|
--2222--2222--0000--0000----|	4x
--0000--0000--0000--2222----|
--0000--0000--0000--0000----|
--xxxx--3333--2222--xxxx----|

konting finale drums ni mark
outro:

--22-            --55\------|
--33-            --55\------|
--22-        or    --77\----|
-----            --77\------|
-----            --55\------|
-----            --xx-------|

end...
Related for Gising Na tab
Gising Na chords by Rivermaya