Song name
# A B C D E F G H I J K L M N O P Q R S T U V W X Y Z

Rivermaya - Ulan tab

 FIRST PART            
e|-------------------------------------------------------0-2--3|
B|--------------3--------------3-----------------3-----3-------|
G|------------0--------------0-----------------0-----2---------|
D|------0---2----------0---2------------0---2------0-----------|GUITAR 1
A|----2---3----------2---3-----------2----3--------------------|(plucking)
E|--3--------------3---------------3---------------------------|
 |                                                             |
 |                                                             |
 |   (let ring )                                               |
e|-------------------------------------------------------------|GUITAR 2
B|--7-----8--------10----8---------7------8--------10----------|(keyboard)
G|-------------------------------------------------------------|
D|-------------------------------------------------------------|
A|-------------------------------------------------------------|
E|-------------------------------------------------------------|
 |                                                             |
 |                                                             |
 |                                                             |
e|-------------------------------------------------------------|GUITAR 3
B|-------------------------------------------------------------|(flute ata)
G|-------------------------------------------------------------|
D|-------------------------------------------------------------|
A|-------------------------------------------------------------|
E|-------------------------------------------------------------|
 uulitin to ng 3x /pero yung 3rd time na strum na yung gagawin ng guitar1 magkasabay sila ng drums.



SECOND PART            
e|--3-----2--------0-----3---------3------3--------0---2---(3)-|GUITAR 1
B|--3-----2--------3-----3---------3------3--------2-----------|(strum)
G|--0-----0--------0-----0---------0------0--------3-----------|
D|--0-----2--------0-----0---------0------2--------0-----------|
A|--2-----3--------2-----2---------2------3--------------------|
E|--3--------------3-----3---------3---------------------------|
 |                                                             |
 |   (let ring )                                               |
e|-------------------------------------------------------------|GUITAR 2
B|--7-----8--------10----8---------7------8--------10----------|(keyboard)
G|-------------------------------------------------------------|
D|-------------------------------------------------------------|
A|-------------------------------------------------------------|
E|-------------------------------------------------------------|
 |                                                             |
 |                                                             |
 |                                                             |
e|---------------------------------10-(let ring)--------8-7----|GUITAR 3
B|--8-(let ring)------------8---10--------------------------10-|(flute ata)
G|-------------------------------------------------------------|
D|-------------------------------------------------------------|
A|-------------------------------------------------------------|
E|-------------------------------------------------------------|
Tap to rate this tab
 
# A B C D E F G H I J K L M N O P Q R S T U V W X Y Z