Guitaretab - guitar tabs
Song name
# A B C D E F G H I J K L M N O P Q R S T U V W X Y Z

Rivermaya - Awit Ng Kabataan tab

Band/Artist: Rivermaya
Song title:  Awit ng kabataan
Tabbed by:   Bruce “Balok” Amurao

standard tuning (EADGBe)

Main solo (2:10) 		|Chords: C – D – G|

e|-----------------------------------------------------7----10-8/10-10\8p7----|
B|-----12-13-15-/20-20\15v-13-12-13/15-\8v-----8---10-----10------------------|
G|---12------------------------------------7/9---9----9-----------------------|
D|-14-------------------------------------------------------------------------|
A|----------------------------------------------------------------------------|
E|----------------------------------------------------------------------------|


e|-8/15—15\10/12-\10-8-7-8-10p8p7-T12/15—-0h10h12-T15p12-T15p12-0h8h10-T15p12-|
B|----------------------------------------------------------------------------|
G|----------------------------------------------------------------------------|
D|----------------------------------------------------------------------------|
A|----------------------------------------------------------------------------|
E|----------------------------------------------------------------------------|


e|-T15p12-0h7h8-T15p12-T15p12-0h5h7--T15p12-T15p12-0h7h8/22-T24p22-T24p22-----|
B|----------------------------------------------------------------------------|
G|----------------------------------------------------------------------------|
D|----------------------------------------------------------------------------|
A|----------------------------------------------------------------------------|
E|----------------------------------------------------------------------------|


e|---------------------------------20-----------------------------------------|
B|-22b(24)-22b(24)-22-20-22-22b(24)---22b(24)—20v----20-20-------20-20--------|
G|------------------------------------------------21-------19h20--------------|
D|----------------------------------------------------------------------------|
A|----------------------------------------------------------------------------|
E|----------------------------------------------------------------------------|
[ Tab from: http://www.guitaretab.com/r/rivermaya/47064.html ]
						Do this part twice and double the speed
								|
e|---------------------------------------T19-p17p15p14—(T19-p17p15p14)--------|
B|-----------------------------15-T20p15--------------------------------------|
G|-19*\14\12----------12-14/16------------------------------------------------|
D|-----------14—12h14---------------------------------------------------------|
A|----------------------------------------------------------------------------|
E|----------------------------------------------------------------------------|

						Do this part twice and double the speed
								|
e|-------------------------------14h15h17-T19-p17p15p14—(T19-p17p15p14)-------|
B|-T17-p15p13-----------------------------------------------------------------|
G|------------T16-p11h12-T16-p12----------------------------------------------|
D|----------------------------------------------------------------------------|
A|----------------------------------------------------------------------------|
E|----------------------------------------------------------------------------|

				Make this part a slur(legato)

e|-------------------------------14h15p14-17p15p14\12h14h15p14p12-------------|
B|-T17-p15p13-----------------------------------------------------12h13p12----|
G|------------T16-p11h12-T16-p12----------------------------------------------|
D|----------------------------------------------------------------------------|
A|----------------------------------------------------------------------------|
E|----------------------------------------------------------------------------|


e|----------------------------------------------------------------------------|
B|-15p13p12\10h12h13p12p10----------------------------------------------------|
G|--------------------------11h12-T16p12~~~----vibrate-tremolo-/\/\/\---------|
D|----------------------------------------------------------------------------|
A|----------------------------------------------------------------------------|
E|----------------------------------------------------------------------------|


Legend:
v – vibrato
h – hammer on
p – pull off
/ - slide up
\ - slide down
/\- tremolo bar (optional)

* Slur/legato or legado – is a style of guitar playing with the use of left hand and bit 
with your right. Smooth continues sound is heard when done properly, with the help of 
used techniques like; hammer and pull-offs.
Related for Awit Ng Kabataan tab
×
Awit Ng Kabataan