Song name
# A B C D E F G H I J K L M N O P Q R S T U V W X Y Z

Rivermaya - A Love To Share tab

Help us improve GuitareTab! Take a short survey!
Song: A Love To Share
Artist: Rivermaya
Tabbed by: John Paulo Valenton
Email Add: romayne15@yahoo.com/emotional_core15@yahoo.com

Normal tuning




Intro:

Guitar1:
|----------------------------------------------------------|
|----------------------------------------------------------|
|-9999999-66666666-44444444-4444444------------------------|
|-9999999-66666666-44444444-4444444------------------------|
|-7777777-44444444-22222222-2222222------------------------|
|----------------------------------------------------------|

Guitar2:
|----------------------------------------------------------|
|--4-5-4--2----------4-5-4-0-------------------------------|
|----------------------------------------------------------|
|----------------------------------------------------------|
|----------------------------------------------------------|
|----------------------------------------------------------|

Guitar1:
|----------------------------------------------------------|
|----------------------------------------------------------|
|-9999999-66666666-44444444-4444444------------------------|
|-9999999-66666666-44444444-4444444------------------------|
|-7777777-44444444-22222222-2222222------------------------|
|----------------------------------------------------------|

Guitar2:
|----------------------------------------------------------|
|--4-5-4--2--------0---------------------------------------|
|----------------------------------------------------------|
|----------------------------------------------------------|
|----------------------------------------------------------|
|----------------------------------------------------------|




Verse1:

Mgksabay ung 1st and 2nd guitar
|----------------------------------------------------------|
|----------------------------------------------------------|
|--9999999-66666666-44444444-4444444-----------------------|
|--9999999-66666666-44444444-4444444-----------------------| (timing nlng puh)
|--7777777-44444444-22222222-2222222-----------------------|
|----------------------------------------------------------|
 If I could take over, this world that were in

|----------------------------------------------------------|
|----------------------------------------------------------|
|--9999999-66666666-44444444-4444444-----------------------|
|--9999999-66666666-44444444-4444444-----------------------|
|--7777777-44444444-22222222-2222222-----------------------|
|----------------------------------------------------------|
 I wanna reach out to every human being

|----------------------------------------------------------|
|----------------------------------------------------------|
|--9999999-66666666-44444444-4444444-----------------------|
|--9999999-66666666-44444444-4444444-----------------------|
|--7777777-44444444-22222222-2222222-----------------------|
|----------------------------------------------------------|
 Ill take all the sorrows from every goodbye

|----------------------------------------------------------|
|----------------------------------------------------------|
|--9999999-66666666-44444444-4444444-----------------------|
|--9999999-66666666-44444444-4444444-----------------------|
|--7777777-44444444-22222222-2222222-----------------------|
|----------------------------------------------------------|
 Ill shed all the tears so no one ever needs to cry but




Chorus:


Guitar2:
|-------7-----7-----7-----7--------------------------------|
|---------------------------------7-----7-----7-----7------|
|-8h9-9---8h9---8h9---8h9---8h9-9---8h9---8h9---8h9--------| timing nlng
|----------------------------------------------------------|
|----------------------------------------------------------|
|----------------------------------------------------------|

Guitar1:
|----------------------------------------------------------|
|----------------------------------------------------------|
|--9999999-66666666-44444444-4444444-----------------------|
|--9999999-66666666-44444444-4444444-----------------------|
|--7777777-44444444-22222222-2222222-----------------------|
|----------------------------------------------------------|
 Nobody cares for me


Guitar2:
|-------7-----7-----7-----7--------------------------------|
|---------------------------------7-----7-----7-----7------|
|-8h9-9---8h9---8h9---8h9---8h9-9---8h9---8h9---8h9--------|
|----------------------------------------------------------|
|----------------------------------------------------------|
|----------------------------------------------------------|

Guitar1:
|----------------------------------------------------------|
|----------------------------------------------------------|
|--9999999-66666666-44444444-4444444-----------------------|
|--9999999-66666666-44444444-4444444-----------------------|
|--7777777-44444444-22222222-2222222-----------------------|
|----------------------------------------------------------|
 Nobody here needs me


Guitar2:
|-------7-----7-----7-----7---------------------------------7-----7-----7-----7-------7-----7-|
|---------------------------------7-----7-----7-----7---------------------------------------7-|
|-8h9-9---8h9---8h9---8h9---8h9-9---8h9---8h9---8h9---8h9-9---8h9---8h9---8h9---8h9-9---8h9---|
|---------------------------------------------------------------------------------------------|
|---------------------------------------------------------------------------------------------|
|---------------------------------------------------------------------------------------------|

Guitar1:
|------------------------------------------------------------------------|
|------------------------------------------------------------------------|
|--9999999-66666666-44444444---------6666666----------44444444-4444444---|
|--9999999-66666666-44444444-6666666-6666666-44444444-44444444-4444444---|
|--7777777-44444444-22222222-6666666-4444444-44444444-22222222-2222222---|
|----------------------------4444444---------22222222--------------------|
  A love to share but nobody dares Nobody cares for me







Verse2:

Mgksabay ung 1st and 2nd guitar
|----------------------------------------------------------|
|----------------------------------------------------------|
|--9999999-66666666-44444444-4444444-----------------------|
|--9999999-66666666-44444444-4444444-----------------------|
|--7777777-44444444-22222222-2222222-----------------------|
|----------------------------------------------------------|
 Ill summon the oceans to drown every pain

|----------------------------------------------------------|
|----------------------------------------------------------|
|--9999999-66666666-44444444-4444444-----------------------|
|--9999999-66666666-44444444-4444444-----------------------|
|--7777777-44444444-22222222-2222222-----------------------|
|----------------------------------------------------------|
 I wanna be shelter to the countless in shame

|----------------------------------------------------------|
|----------------------------------------------------------|
|--9999999-66666666-44444444-4444444-----------------------|
|--9999999-66666666-44444444-4444444-----------------------|
|--7777777-44444444-22222222-2222222-----------------------|
|----------------------------------------------------------|
 Erase every conflict from every divide

|----------------------------------------------------------|
|----------------------------------------------------------|
|--9999999-66666666-44444444-4444444-----------------------|
|--9999999-66666666-44444444-4444444-----------------------|
|--7777777-44444444-22222222-2222222-----------------------|
|----------------------------------------------------------|
 I wanna give every little thing till I die Singing





Chorus:


Guitar2:
|-------7-----7-----7-----7--------------------------------|
|---------------------------------7-----7-----7-----7------|
|-8h9-9---8h9---8h9---8h9---8h9-9---8h9---8h9---8h9--------| timing nlng
|----------------------------------------------------------|
|----------------------------------------------------------|
|----------------------------------------------------------|

Guitar1:
|----------------------------------------------------------|
|----------------------------------------------------------|
|--9999999-66666666-44444444-4444444-----------------------|
|--9999999-66666666-44444444-4444444-----------------------|
|--7777777-44444444-22222222-2222222-----------------------|
|----------------------------------------------------------|
 Nobody cares for me


Guitar2:
|-------7-----7-----7-----7--------------------------------|
|---------------------------------7-----7-----7-----7------|
|-8h9-9---8h9---8h9---8h9---8h9-9---8h9---8h9---8h9--------|
|----------------------------------------------------------|
|----------------------------------------------------------|
|----------------------------------------------------------|

Guitar1:
|----------------------------------------------------------|
|----------------------------------------------------------|
|--9999999-66666666-44444444-4444444-----------------------|
|--9999999-66666666-44444444-4444444-----------------------|
|--7777777-44444444-22222222-2222222-----------------------|
|----------------------------------------------------------|
 Nobody here needs me


Guitar2:
|-------7-----7-----7-----7---------------------------------7-----7-----7-----7---------------------------|
|---------------------------------7-----7-----7-----7---------------------------------7-----7-----7-----7-|
|-8h9-9---8h9---8h9---8h9---8h9-9---8h9---8h9---8h9---8h9-9---8h9---8h9---8h9---8h9-9---8h9---8h9---8h9---|
|---------------------------------------------------------------------------------------------------------|
|---------------------------------------------------------------------------------------------------------|
|---------------------------------------------------------------------------------------------------------|

Guitar1:
|------------------------------------------------------------------------|
|------------------------------------------------------------------------|
|--9999999-66666666-44444444---------6666666----------44444444-4444444---|
|--9999999-66666666-44444444-6666666-6666666-44444444-44444444-4444444---|
|--7777777-44444444-22222222-6666666-4444444-44444444-22222222-2222222---|
|----------------------------4444444---------22222222--------------------|
  A love to share but nobody dares Nobody cares for me




Coda: Ulitin lang ng 4 na beses

Guitar2:
|-------7-----7-----7-----7--------------------------------|
|---------------------------------7-----7-----7-----7------|
|-8h9-9---8h9---8h9---8h9---8h9-9---8h9---8h9---8h9--------|
|----------------------------------------------------------|
|----------------------------------------------------------|
|----------------------------------------------------------|

Guitar1:
|----------------------------------------------------------|
|----------------------------------------------------------|
|--9999999-66666666-44444444-4444444-----------------------|
|--9999999-66666666-44444444-4444444-----------------------|
|--7777777-44444444-22222222-2222222-----------------------|
|----------------------------------------------------------|

Guitar2:
|-------7-----7-----7-----7--------------------------------|
|---------------------------------7-----7-----7-----7------|
|-8h9-9---8h9---8h9---8h9---8h9-9---8h9---8h9---8h9--------|
|----------------------------------------------------------|
|----------------------------------------------------------|
|----------------------------------------------------------|

Guitar1:
|----------------------------------------------------------|
|----------------------------------------------------------|
|--9999999-66666666-44444444-4444444-----------------------|
|--9999999-66666666-44444444-4444444-----------------------|
|--7777777-44444444-22222222-2222222-----------------------|
|----------------------------------------------------------|

Guitar2:
|-------7-----7-----7-----7--------------------------------|
|---------------------------------7-----7-----7-----7------|
|-8h9-9---8h9---8h9---8h9---8h9-9---8h9---8h9---8h9--------|
|----------------------------------------------------------|
|----------------------------------------------------------|
|----------------------------------------------------------|

Guitar1:
|----------------------------------------------------------|
|----------------------------------------------------------|
|--9999999-66666666-44444444-4444444-----------------------|
|--9999999-66666666-44444444-4444444-----------------------|
|--7777777-44444444-22222222-2222222-----------------------|
|----------------------------------------------------------|

Guitar2:
|-------7-----7-----7-----7---7----------------------------|
|-----------------------------7----------------------------|
|-8h9-9---8h9---8h9---8h9-----8----------------------------|
|----------------------------------------------------------|
|----------------------------------------------------------|
|----------------------------------------------------------|

Guitar1:
|----------------------------------------------------------|
|----------------------------------------------------------|
|--9999999-66666666-----------4----------------------------|
|--9999999-66666666-----------4----------------------------|
|--7777777-44444444-----------2----------------------------|
|----------------------------------------------------------|
                      Ends in B


Pakirate puh Thanks ^^
Related for A Love To Share tab