Song name
# A B C D E F G H I J K L M N O P Q R S T U V W X Y Z

Rivermaya - Bye Bye Na tab

Highlighted       Show chord diagrams
Song: Bye bye na
Band: Rivermaya
Ear Tabbed by: Robert Asino (Bert)
Contact Number: 09219696443 or 09226538559 need txtm8 girls only.. wkakekeke...
E-mail address: nupandu@yahoo.com invyt ninu me sa friendster.. ^^..
Tunning: Standard

/*I made it just 4 you*/

Intro:
e--------2-3---3---|--------2-------|
B------3-----3---3-|------3---3-----|
G----2-------------|----2-----------|	(2x)
D--0---------------|--0-------------|
A------------------|----------------|
E------------------|----------------|

e--------2----|
B------3---3--|
G----2--------|	(2x)
D--0----------|
A-------------|

I
D	 F#m	  Em	  A
    Heto na ang gabi na ikaw
      D	     F#m      Em   A
Ay aalis at iiwan mo ako
D	 F#m	  Em	    A
    Sa lahat ng gabi to ang ayaw
     D	      F#m      Em   A
dumating sana ay umaga na

Refrain:
G		F#
Tatawagan mo pa rin ba ako
G		F#
Susulatan mo pa ba ako
G		 F#	   F-C
Tayo pa rin bang dalawa kahit...

Chorus:
D     F#m  Em	   A
Babye na   aalis kana
D	 F#m	  Em	   A
babye narin ba sa ating alaala

(Repeat Intro)

II
(Do Verse 1 Chords)
Meron kang makikitang mas higit pa
Sa akin pag ika'y malayo na

(Repeat Refrain)
(Repeat Chorus)

Bridge:
G	       D	   Bm	      	A
  Wag mong lilimutin na nandito lang ako
G	      D		Bm-A
  Hawak ang larawan mo....

(Repeat Refrain and Chorus til Fade)
Tap to rate this tab
# A B C D E F G H I J K L M N O P Q R S T U V W X Y Z