Song name
# A B C D E F G H I J K L M N O P Q R S T U V W X Y Z

Rivermaya - Nerbyoso tab

Song       :  Nerbyoso
Band       :  Rivermaya
Tabbed by  :  Robert Simon Uy!!!!

----------------------------------------------------------------------------
| ------------------------------------------------------------------------ |
| |                                                                      | |
| |                   Thanks to all human being!!!!!!                    | |
| |                 Plsss rate this tab..comentz dn po..                 | |
| |                                                                      | |
| ------------------------------------------------------------------------ |
----------------------------------------------------------------------------

Tuning : EBGDAE(standard)

Guitars :

Guitar 1 - Rhythm
Guitar 2 - Lead
Guitar 3 - Bass

Intro :

Guitars 1 and 2 :

e|-------------------------------------------|
B|-------------------------------------------|
G|-7-7---------------------------------------|
D|-7-7--7--7--9--9--7--7--5-5-55555555555555-|2x
A|-5-5--7--7--9--9--7--7--5-5-55555555555555-|
E|------5--5--7--7--5--5--3-3-33333333333333-|

Guitar 3 :

G|---------------------------------------------|
D|---------------------------------------------|
A|---------------------------------------------|2x
E|-10-10--5--5--7--7--5--5--3-3-33333333333333-|

Verse 1 :

Guitar 3 :

G|------------------------------------|
D|------------------------------------|
A|------------------------------------|
E|-1010101010101010101010101010101010-|
   Isang       gabing      kasama 
(continued)
G|------------------------------------------------------|
D|------------------------------------------------------|
A|------------------------------------------------------|
E|-33333333333333333\1010101010101010101010101010101010-|
 ka        Walang ginagawa     ang     iba     kundi
(continued)
G|------------------------------------------------------|
D|------------------------------------------------------|
A|------------------------------------------------------|
E|-33333333333333333\1010101010101010101010101010101010-|
mag-usap... mata         Bigla... tinawag
(continued)
**Note : tingnan nyong mbuti yng tab..may 5th fret s prt n to**
G|----------------------------------------------------------|
D|----------------------------------------------------------|
A|----------------------------------------------------------|
E|-3333333333333333-5-33\1010101010101010101010101010101010-|
     Uwian..pala           Paglingon    ko'y    wala    ka   
(continued)
G|------------------|
D|------------------|
A|------------------|
E|-3333333333333333-|
   na

Refrain :

Guitar 1 :

     e|-----------------------------------------------------------------|
     B|-----------------------------------------------------------------|
     G|-----------------------------------------------------------------|
     D|-----------------------------------------------------------------|
     A|-4-4-4-4-4-4-4-4-4-4-4-4-4-4-4-4-2-2-2-2-2-2-2-2-2-2-2-2-2-2-2-2-|
     E|-2-2-2-2-2-2-2-2-2-2-2-2-2-2-2-2-0-0-0-0-0-0-0-0-0-0-0-0-0-0-0-0-|
Ilang gabi...                ...nagdaramdam

                                         (Guitars 1 and 2)
     e|---------------------------------|-----------------|
     B|---------------------------------|-----------------|
     G|---------------------------------|-----------------|
     D|---------------------------------|-5-5-555-7-7-7-7-|
     A|-4-4-4-4-4-4-4-4-4-4-4-4-4-4-4-4-|-5-5-555-7-7-7-7-|
     E|-2-2-2-2-2-2-2-2-2-2-2-2-2-2-2-2-|-3-3-333-5-5-5-5-|
Kahit pangalan...                      ..alam

Guitar 3 :

     G|-----------------------------------|
     D|-----------------------------------|
     A|-----------------------------------|
     E|---------------------------------0-|

     G|-------------------------------------------------|
     D|-------------------------------------------------|
     A|-------------------------------------------------|
     E|-2-------------------------------3-3-333-5-5-5-5-|

Chorus :

Guitar 3 :

G|-------------------------------------|
D|-------------------------------------|
A|-5-5-555-----------------------------|2x
E|---------5-5-55555-3-3-333-5-5-55555-|

Guitars 1 and 2 :

  e|-------------------------------------|
  B|-------------------------------------|
  G|-7-7-777-----------------------------|
  D|-7-7-777-7-7-77777-5-5-555-7-7-77777-|
  A|-5-5-555-7-7-77777-5-5-555-7-7-77777-|
  E|---------5-5-55555-3-3-333-5-5-55555-|
Sasabihin....sana't aaminin sa iyo

     e|-------------------------------------|
     B|-------------------------------------|
     G|-7-7-777-----------------------------|
     D|-7-7-777-7-7-77777-5-5-555-7-7-77777-|
     A|-5-5-555-7-7-77777-5-5-555-7-7-77777-|
     E|---------5-5-55555-3-3-333-5-5-55555-|
Lahat lahat...itinatago ..puso  ..alipin ng 

(then)
Guitar 1 :

e|---|
B|---|
G|---|
D|-4-|
A|-4-|
E|-2-|
kaba

Guitar 3 :

G|-------------------------------------------------|
D|-------------------------------------------------|
A|-------------------------------------------------|
E|-2-2-2222-2-2-22-0-0-0000-0-0-00-2-2-2222-2-2-22-|
         Alam.. naman..      ..magawa
                                
Guitar 2 :                                 
                                        
e|-9---------------7---------------9---|
B|-10----------------8-------------10--|
G|-11------------------9-----------11--|
D|-------------------------------------|
A|-------------------------------------|
E|-------------------------------------|

(then)
Guitars 1 and 2 :

e|----------------------|
B|----------------------|
G|----------------------|
D|-7-7------------------|2x
A|-7-7-4/5-7-5-55555555-|
E|-5-5-2/3-5-3-33333333-|
Nerbyoso

Guitar 3 :

G|--------------------------------------------|
D|--------------------------------------------|
A|--------------------------------------------|
E|-5-5-2-3-5-3-333333333/5-5-2-3-5-3-33333333-|

**repeat intro**

Verse 2 :

Guitar 3 :

      G|------------------------------------|
      D|------------------------------------|
      A|------------------------------------|
      E|-1010101010101010101010101010101010-|
Nais ko sanang...
(continued)
G|----------------------------------------------------------|
D|----------------------------------------------------------|
A|----------------------------------------------------------|
E|-3333333333333333-5-33\1010101010101010101010101010101010-|
muli            Kahit saglit...
(continued)
G|----------------------|
D|----------------------|
A|----------------------|
E|-3333333333333333-5-3-|
Sandali

Refrain :

Guitar 3 :

     G|-----------------------------------------------------------------|
     D|-----------------------------------------------------------------|
     A|-----------------------------------------------------------------|
     E|-2-2-2-2-2-2-2-2-2-2-2-2-2-2-2-2-0-0-0-0-0-0-0-0-0-0-0-0-0-0-0-0-|
Pagkat ilang...               ..nagdaramdam

       G|---------------------------------|-----------------|
       D|---------------------------------|-----------------|
       A|---------------------------------|-----------------|
       E|-2-2-2-2-2-2-2-2-2-2-2-2-2-2-2-2-|-3-3-333-5-5-5-5-|
Pano kung di...                   ...matagpuan

Guitar 2 :
                                                 (Guitars 1 and 2)
e|----------------------------------------------|-----------------|
B|-----2---------------0----0----------2----2---|-----------------|
G|---2----2---2------0----0---0------2----2---2-|-----------------|
D|-4--------4----4p2-------------2h4------------|-5-5-555-7-7-7-7-|
A|----------------------------------------------|-5-5-555-7-7-7-7-|
E|----------------------------------------------|-3-3-333-5-5-5-5-|

Chorus :

Guitar 3 :

G|-------------------------------------|
D|-------------------------------------|
A|-5-5-555-----------------------------|2x
E|---------5-5-55555-3-3-333-5-5-55555-|

Guitars 1 and 2 :

  e|-------------------------------------|
  B|-------------------------------------|
  G|-7-7-777-----------------------------|
  D|-7-7-777-7-7-77777-5-5-555-7-7-77777-|
  A|-5-5-555-7-7-77777-5-5-555-7-7-77777-|
  E|---------5-5-55555-3-3-333-5-5-55555-|
Sasabihin....sana't aaminin sa iyo

     e|-------------------------------------|
     B|-------------------------------------|
     G|-7-7-777-----------------------------|
     D|-7-7-777-7-7-77777-5-5-555-7-7-77777-|
     A|-5-5-555-7-7-77777-5-5-555-7-7-77777-|
     E|---------5-5-55555-3-3-333-5-5-55555-|
Lahat lahat...itinatago ..puso  ..alipin ng 

(then)
Guitar 1 :

e|---|
B|---|
G|---|
D|-4-|
A|-4-|
E|-2-|

Guitar 3 :

G|-------------------------------------------------|
D|-------------------------------------------------|
A|-------------------------------------------------|
E|-2-2-2222-2-2-22-0-0-0000-0-0-00-2-2-2222-2-2-22-|
Kaba     alam.. naman..      ..magawa
                                
Guitar 2 :

e|-9------------9-------------7---9------------9-------|
B|-10----10-------10--------8-----10----10-------10----|
G|-11-11-----11------11-9-9-------11-11-----11------11-|
D|-----------------------------------------------------|
A|-----------------------------------------------------|
E|-----------------------------------------------------|

(then)
Guitars 1 and 2 :

e|----------------------|
B|----------------------|
G|----------------------|
D|-7-7------------------|2x
A|-7-7-4/5-7-5-55555555-|
E|-5-5-2/3-5-3-33333333-|
Nerbyoso

Guitar 3 :

G|--------------------------------------------|
D|--------------------------------------------|
A|--------------------------------------------|
E|-5-5-2-3-5-3-333333333/5-5-2-3-5-3-33333333-|

Interlude:

Guitar 3 :

G|------------------------------------------|
D|-------11-9~----9/11-4~----4/11-9----9/11-|
A|------------------------------------------|
E|-2----------------------------------------|

Guitar 1 :

e|--------------------------------------------------|
B|-------------------3----3----3----3----3----3---3-|
G|-----------------2----2----2----2----2----2----2--|
D|-4------------------------------------------------|
A|-4------------------------------------------------|
E|-2------------------------------------------------|

Guitar 1 :

e|---|
B|---|
G|---|
D|-4-|
A|-4-|
E|-2-|

Verse 3 :

Guitar 3 :

G|-----------------------------------------------------------------------|
D|-----------------------------------------------------------------------|
A|------------------------------------10--12-10-12-10--10-10-12-10-12-10-|
E|-10--12-10-12-10--10-10-12-10-12-10------------------------------------|
Ilang...                  ...nagdaramdam                           Kasi...

G|--------------------------------------|
D|--------------------------------------|
A|--------------------------------------|
E|-10--12-10-12-10--10-10-12-10-12-10-3-|
 mahal   kita,   hindi   mo   lang   alam

Last Chorus :

Chorus :

Guitar 3 :

G|-------------------------------------|
D|-------------------------------------|
A|-5-5-555-----------------------------|2x
E|---------5-5-55555-3-3-333-5-5-55555-|

Guitars 1 and 2 :

  e|-------------------------------------|
  B|-------------------------------------|
  G|-7-7-777-----------------------------|
  D|-7-7-777-7-7-77777-5-5-555-7-7-77777-|
  A|-5-5-555-7-7-77777-5-5-555-7-7-77777-|
  E|---------5-5-55555-3-3-333-5-5-55555-|
Sasabihin....sana't aaminin sa iyo

     e|-------------------------------------|
     B|-------------------------------------|
     G|-7-7-777-----------------------------|
     D|-7-7-777-7-7-77777-5-5-555-7-7-77777-|
     A|-5-5-555-7-7-77777-5-5-555-7-7-77777-|
     E|---------5-5-55555-3-3-333-5-5-55555-|
Lahat lahat...itinatago ..puso  ..alipin 

  e|-------------------------------------|
  B|-------------------------------------|
  G|-7-7-777-----------------------------|
  D|-7-7-777-7-7-77777-5-5-555-7-7-77777-|
  A|-5-5-555-7-7-77777-5-5-555-7-7-77777-|
  E|---------5-5-55555-3-3-333-5-5-55555-|
Sasabihin....sana't aaminin sa iyo

     e|-------------------------------------|
     B|-------------------------------------|
     G|-7-7-777-----------------------------|
     D|-7-7-777-7-7-77777-5-5-555-7-7-77777-|
     A|-5-5-555-7-7-77777-5-5-555-7-7-77777-|
     E|---------5-5-55555-3-3-333-5-5-55555-|
Lahat lahat...itinatago ..puso  ..alipin

(then)
Guitar 1 :

e|---|
B|---|
G|---|
D|-4-|
A|-4-|
E|-2-|

Guitar 3 :

G|---------------------------------------------|
D|---------------------------------------------|
A|---------------------------------------------|
E|-2-222-222-222-0-000-000-000-2-222-2-2-222-2-|
Kaba...        natin..    ..magawa
                                
Guitar 2 :

e|-2-222-222-222-0-000-000-000-2-222-2-2-222-2-|
B|-2-222-222-222-0-000-000-000-2-222-2-2-222-2-|
G|-2-222-222-222-0-000-000-000-2-222-2-2-222-2-|
D|---------------------------------------------|
A|---------------------------------------------|
E|---------------------------------------------|

(then)
Guitars 1 and 2 :

e|----------------------|          e|-----------0-|
B|----------------------|          B|-----------0-|
G|----------------------|          G|-----------0-|
D|-7-7------------------|3x  Last: D|-7-7-------5-| 
A|-7-7-4/5-7-5-55555555-|          A|-7-7-4/5-7-5-|
E|-5-5-2/3-5-3-33333333-|          E|-5-5-2/3-5-3-|
Nerbyoso.........

Guitar Legend :

/  -  Slide Up
\  -  Slide Down
~  -  Vibrato
h  -  Hammer
p  -  Pull Off
+  -  Harmonic
b  -  Bend

Lyrics :

Verse 1
 Isang gabing kasama ka
 Walang ginagawa ang iba kundi mag-usap sa mata
 Bigla 'kong tinawag
 Uwian na pala
 Paglingon ko'y wala ka na

Refrain
 Ilang gabi na kong lubhang nagdaramdam
 Kahit pangalan mo'y hindi ko pa alam

Chorus
 Sasabihin ko na sana't
 Aaminin sa iyo
 Lahat lahat ng itinatago ng 
 Puso kong alipin ng kaba

 Alam mo naman tayo
 Walang magawa
 Nerbyoso

Verse 2
 Nais ko sanang makapiling kang muli
 Kahit saglit lang, kahit lamang sandali

Refrain
 Pagkat ilang gabi na 'kong nagdaramdam
 Pano kung di ka na muling matagpuan

**repeat chorus**

Refrain
 Ilang gabi na 'kong lubhang nagdaramdam
 Kasi mahal kita, hindi mo lang alam

Last Chorus
 Sasabihin ko na sana't
 Aaminin sa iyo
 Lahat lahat ng itinatago ng 
 Puso kong alipin

 Sasabihin ko na sana't
 Aaminin sa iyo
 Lahat lahat ng itinatago ng 
 Puso kong alipin ng kaba

 Alam mo naman tayo
 Walang magawa
 Nerbyoso

-------------------------------------EnD------------------------------------
| ------------------------------------------------------------------------ |
| |        Tnx...Plsss rate this tab of mine...Comentz dN poH..          | |
| |     Hi 2 all those from NCSHS(Naga City Science High School)..       | |
| ------------------------------------------------------------------------ |
----------------------------------------------------------------------------
         ©Copyright2007©       Robert Simon Uy™        ®Registered®
Tap to rate this tab
# A B C D E F G H I J K L M N O P Q R S T U V W X Y Z