Song name
# A B C D E F G H I J K L M N O P Q R S T U V W X Y Z

Rivermaya - Liwanag Sa Dilim tab

Artist: Rivermaya
Title: Liwanag Sa Dilim
Tuning: Standard e-B-G-D-A-E


Intro: 

e|------6-6-6-6-6-------|------6-6-6-----------|
B|------6-6-6-6-6-------|------6-6-6-----------|
G|----------------------|----------------------| 3 times
D|--3--------------3-5--|--6----------5-3------|
A|----------------------|-----------------6----|
E|----------------------|----------------------|

e|------6-6-6-6---------|---6-6-6-6-6----------|
B|------6-6-6-6---------|---6-6-6-6-6----------|
G|------x-x-x-x---------|----------------------|
D|---------------3-5----|--------------8-7-----|
A|--1-------------------|--------------6-5-----|
E|----------------------|----------------------|

e|----------------------|----------------------|----------------------|
B|----------------------|----------------------|----------------------|
G|----------------------|----------------------|----------------------|
D|----------------8-7---|----------------8-7---|----------------------|
A|--8--8-8-8------6-5---|--6---6-6-6-----6-5---|--8---8-8-8-----3-5---|
E|--6--6-6-6------------|--4---4-4-4-----------|--6---6-6-6-----1-3---|

e|----------------------|----------------------|----------------------|
B|----------------------|----------------------|----------------------|
G|----------------------|----------------------|----------------------|
D|----------------8-7---|----------------8-7---|----------------------|
A|--6---6-6-6-----6-5---|--8--8-8-8------6-5---|--6---6-6-6-----6-6---|
E|--4---4-4-4-----------|--6--6-6-6------------|--4---4-4-4-----4-4---|

e|----------------------|
B|----------------------|
G|----------------------|
D|--5-5-5-5-6-----------|
A|--5-5-5-5-6-----------|
E|--3-3-3-3-4-----------|

Verse I:

e|------6-6-6-6-6-------|------6-6-6-----------|
B|------6-6-6-6-6-------|------6-6-6-----------|
G|----------------------|----------------------| 5 times
D|--3--------------3-5--|--6----------5-3------|
A|----------------------|-----------------6----|
E|----------------------|----------------------|

e|------6-6-6-6-6-------|----------------------|
B|------6-6-6-6-6-------|----------------------|
G|----------------------|----------------------| 
D|--3--------------3-5--|--6-6-6-6------8-7----|
A|----------------------|--6-6-6-6------6-5----|
E|----------------------|--4-4-4-4-------------|

Chorus: 

e|----------------------|----------------------|----------------------|----------------------|
B|----------------------|----------------------|----------------------|----------------------|
G|----------------------|----------------------|----------------------|----------------------|
D|----------------8-7---|----------------8-7---|----------------------|----------------8-7---|
A|--8--8-8-8------6-5---|--6---6-6-6-----6-5---|--8---8-8-8-----3-5---|--6---6-6-6-----6-5---|
E|--6--6-6-6------------|--4---4-4-4-----------|--6---6-6-6-----1-3---|--4---4-4-4-----------|

e|----------------------|----------------------|----------------------|----------|
B|----------------------|----------------------|----------------------|----------|
G|----------------------|----------------------|----------------------|----------|
D|----------------8-7---|----------------8-7---|----------------------|----------|
A|--8--8-8-8------6-5---|--6---6-6-6-----6-5---|--8---8-8-8-----3-5---|--6-------|
E|--6--6-6-6------------|--4---4-4-4-----------|--6---6-6-6-----1-3---|--4-------|

Interlude:

e|----------------------|----------------------|----------------------|----------|
B|----------------------|----------------------|----------------------|----------|
G|----------------------|----------------------|----------------------|----------|
D|----------------8-7---|----------------8-7---|----------------3-5---|--5b------|
A|--8--8-8-8------6-5---|--6---6-6-6-----6-5---|--8---8-8-8-----------|----------|
E|--6--6-6-6------------|--4---4-4-4-----------|--6---6-6-6-----------|----------|

Verse II:

e|-----6-6-6-6-6-6-6-6--|-----4-4-4-4-4-4-4-4--|
B|-----6-6-6-6-6-6-6-6--|-----1-1-1-1-1-1-1-1--|
G|-----3-3-3-3-3-3-3-3--|-----1-1-1-1-1-1-1-1--|  5 times
D|-----3-3-3-3-3-3-3-3--|-----1-1-1-1-1-1-1-1--|
A|----------------------|----------------------|
E|--6-------------------|--4-------------------|

e|-----6-6-6-6-6-6-6-6--|----------------------|
B|-----6-6-6-6-6-6-6-6--|----------------------|
G|-----3-3-3-3-3-3-3-3--|----------------8-7---|
D|-----3-3-3-3-3-3-3-3--|--6-6-6-6-------6-5---|
A|----------------------|--6-6-6-6-------------|
E|--6-------------------|--4-4-4-4-------------|

Repeat Chorus: 
Guitar Solo:

e|-----------------------------15--------------------|---------------------------------------------------|
B|--16-15----18-15----16-15-------15-----------------|--16-15----18-15----16-15----18-15----16-15--------|
G|--------15-------15-------15-------15-------15-17--|--------15-------15-------15-------15-------15-----|
D|-------------------------------------15-17---------|---------------------------------------------------|
A|---------------------------------------------------|---------------------------------------------------|
E|---------------------------------------------------|---------------------------------------------------|

e|---------------------------------------------------|---------------------------------------------------|
B|---------------------------------------------------|---------------------------------------------------|
G|--10/12---8/10-------------------------------------|--12\10-10-10-x-x--12\10-10-10-x-x--12\10-10-10----|
D|------------------10/12---8/10---------------------|--x--x--x--x--x-x--x--x--x--x--x-x--x--x--x--x-----|
A|---------------------------------8/12\-------------|--10\8--8--8--x-x--10\8--8--8--x-x--10\8--8--8-----|
E|---------------------------------------------------|---------------------------------------------------|

e|-----------------------------15--------------------|---------------------------------------------------|
B|--16-15----18-15----16-15-------15-----------------|--16-15----18-15----16-15----18-15----16-13--------|
G|--------15-------15-------15-------15-------15-17--|--------15-------15-------15-------15-------13-----|
D|-------------------------------------15-17---------|---------------------------------------------------|
A|---------------------------------------------------|---------------------------------------------------|
E|---------------------------------------------------|---------------------------------------------------|
         T       T       T       T       T       T       T       T
e|-------------------------------------------------------------------|
B|--6/11-15-6/11-15-6/11-15-6/11-15-6/11-15-6/11-15-6/11-15-6/11-15--|
G|-------------------------------------------------------------------|
D|-------------------------------------------------------------------|
A|-------------------------------------------------------------------|
E|-------------------------------------------------------------------|
 T       T       T       T       T       T       T       T       T
e|-------------------------------------------------------------------|
B|--6/11-16-6/11-16-6/11-16-6/11-16-6/11-16-6/11-16-6/11-16-6/11-16--|
G|-------------------------------------------------------------------|
D|-------------------------------------------------------------------|
A|-------------------------------------------------------------------|
E|-------------------------------------------------------------------|

e|---------------------------------13------(13)\---------------------|
B|--------------------13h15p13h15-----------------16--15-------------|
G|---13h15p13h15--13-------------------------------------------------|
D|-------------------------------------------------------------------|
A|-------------------------------------------------------------------|
E|-------------------------------------------------------------------|
      let ring....................................................... 
e|-------------------------------------------------------------------|
B|-------------------------------------------------------------------|
G|--15~~~~~~~~~~~~~~~~~~~~~~~~(15)~~~~~~~~~~~~~~~~~~~~~~~~(15)~~~~~~~|
D|-------------------------------------------------------------------|
A|-------------------------------------------------------------------|
E|-------------------------------------------------------------------|

Bridge:
 P.M.............................................................................................................
e|---------------------------|---------------------------|---------------------------|---------------------------|
B|---------------------------|---------------------------|---------------------------|---------------------------|
G|---------------------------|---------------------------|---------------------------|---------------------------|
D|---------------------------|---------------------------|---------------------------|--8-8-8-8-8-8-8-8----------|
A|--8-8-8-8-8-8-8-8----------|--10-10-10-10-10-10-10-10--|--5-5-5-5-5-5-5-5----------|--6-6-6-6-6-6-6-6----------|
E|--6-6-6-6-6-6-6-6----------|--8--8--8--8--8--8--8--8---|--3-3-3-3-3-3-3-3----------|---------------------------|
 P.M.....................................................
e|---------------------------|---------------------------|---------------------------|---------------------------|
B|---------------------------|---------------------------|---------------------------|---------------------------|
G|---------------------------|---------------------------|---------------------------|---------------------------|
D|---------------------------|---------------------------|---------------------------|-----------------8-7-------|
A|--5-5-5-5-5-5-5-5----------|--6-6-6-6-6-6-6-6----------|--5-5-5-5-5-5-5-5----------|--6--------------6-5-------|
E|--3-3-3-3-3-3-3-3----------|--4-4-4-4-4-4-4-4----------|--3-3-3-3-3-3-3-3----------|--4------------------------|

Out Chorus: 

e|---------------------------|---------------------------|---------------------------|---------------------------|
B|---------------------------|---------------------------|---------------------------|---------------------------|
G|---------------------------|---------------------------|---------------------------|---------------------------|
D|---------------------------|---------------------------|---------------------------|--8-8-8-8---8---8-8---8----|
A|--8-8-8-8---8---8-8---8----|-10-10-10-10--10-10--10-10-|--6-6-6-6---6---6-6---6----|--6-6-6-6---6---6-6---6----|
E|--6-6-6-6---6---6-6---6----|-8--8--8--8---8--8---8--8--|--4-4-4-4---4---4-4---4----|---------------------------|

e|---------------------------|---------------------------|---------------------------|---------------------------|
B|---------------------------|---------------------------|---------------------------|---------------------------|
G|---------------------------|---------------------------|---------------------------|---------------------------|
D|--5-5-5-5-5-5-5-5----------|--6-6-6-6-6-6-6-6----------|--5-5-5-5-5-5-5-5----------|--6----------------x\------|
A|--5-5-5-5-5-5-5-5----------|--6-6-6-6-6-6-6-6----------|--5-5-5-5-5-5-5-5----------|--6----------------x-\-----|
E|--3-3-3-3-3-3-3-3----------|--4-4-4-4-4-4-4-4----------|--3-3-3-3-3-3-3-3----------|--4----------------12-\----|

Outro: 

e|----------------------|----------------------|----------------------|----------------------|
B|----------------------|----------------------|----------------------|----------------------|
G|----------------------|----------------------|----------------------|----------------------|
D|----------------8-7---|----------------8-7---|----------------------|----------------8-7---|
A|--8--8-8-8------6-5---|--6---6-6-6-----6-5---|--8---8-8-8-----3-5---|--6---6-6-6-----6-5---|
E|--6--6-6-6------------|--4---4-4-4-----------|--6---6-6-6-----1-3---|--4---4-4-4-----------|

e|-------------------|-------------------|-------------------|-------------------|-------------------|
B|-------------------|-------------------|-------------------|-------------------|-------------------|
G|-------------------|-------------------|-------------------|--------------8-7--|-------------------|
D|--------------8-7--|--------------8-7--|-------------------|--------------8-7--|--8----------------|
A|--8--8-8-8----6-5--|--6---6-6-6---6-5--|--8---8-8-8---3-5--|--6---6-6-6---6-5--|--8----------------|
E|--6--6-6-6---------|--4---4-4-4--------|--6---6-6-6---1-3--|--4---4-4-4--------|--6----------------|

Tap to rate this tab
# A B C D E F G H I J K L M N O P Q R S T U V W X Y Z