Guitaretab - guitar tabs
Song name
# A B C D E F G H I J K L M N O P Q R S T U V W X Y Z

Rivermaya - Balisong Live tab

Rivermaya
Balisong (live)
auxhre_11@yahoo.com

Napanood ko ito sa MYX live... kaya kung medyo iba tunog nung ibang parts ay dahil iniba 
eh... ayun lang

Tuning: standard
Legend:
h: hammer on
s: slide
~: ring

Intro:
e ----------------------------
b ----------------------------
g ----------------------------(repeat)
d --78---78--76---78-----
a --56---56--58---56-----
E ----------------------------

Verse:
e ----------------------
b ----------------------
g ----------------------
d -------------8~~~~----	(repeat through out the verse)
a ----------8-6~~~~----
E --6~~~h8--------------


Chorus: (Bb,Fm,Cm,Ebm)

	Bb		Fm			Cm			Ebm
e ---66-6-6-6-6-6-6---8-8--8--8--8--8-8--8----8-8---8--8--8--8--8--8----66666666--
b ---66-6-6-6-6-6-6---9-9--9--9--9--9-9--9----8-8---8--8--8--8--8--8----77777777--
g ---77-7-7-7-7-7-7---10-10-1010-1010-1010---8-8---8--8--8--8--8--8----88888888--
d ---88-8-8-8-8-8-8---10-10-1010-1010-1010---10-10-1010-1010-1010----88888888--
a ---88-8-8-8-8-8-8---8-8--8--8--8--8-8--8----10-10-1010-1010-1010----66666666--
E ---66-6-6-6-6-6-6------------------------------8-8---8--8--8--8--8--8---------------------
[ Tab from: http://www.guitaretab.com/r/rivermaya/55720.html ]
Solo: (kung di nyo alam kung pano ni mike ginagawa i2,sa mga gigs yta nla gingwa nya 
s MYX live ko lang ito napakinggan,ala ito dun sa album...kung di nyo alam kng pano play 
part n i2,just make ur own solo,mas professional ang dating nun,o kaya stick nlng kyo s chords ng chorus)

e -------10----10----10----10----------13----13----13----13-----8--8-8-8--------11----11-----11---11--
b -----11--11----11----11------------13--13----13----13--------8-8--8--8--------11--11----11----11------
g --10-------10----10----10-----10s14------14----14----14-----8---8--8-8-----11------11----11----11----
d -------------------------------------------------------------------------------------------------------
a -------------------------------------------------------------------------------------------------------
E -------------------------------------------------------------------------------------------------------

(may konting variations yang solo,hindi plain na gnyan yan,di k n nlagay,kyo nlng gwa ng 
nyo...u knw wat I mean)

Outro
e -------~~~~~~
b -------~~~~~~
g -------~~~~~~
d --7--8~~~~~~
a --5--6~~~~~~
E -------~~~~~~

Song structure
Intro
Verse
Chorus
Verse
Chorus
Solo
Chorus
outro

Note: yung bibirit n c rico sa huli, make ur guitar distorted na...end
Related for Balisong Live tab