Song name
# A B C D E F G H I J K L M N O P Q R S T U V W X Y Z

Rivermaya - Luha tab

Tabbed by:Midn. 1cl Mayola,M. Jr. G.
	  M-0552   MAAP CLASS 2006

This is my first tab,so, i hope you'll like it.

Intro:
     D (2x)        G (2x)
e|--2--2---5--2-----|-------3/5-3---|
B|--3---3-------3---|-----3-------3-|
G|--2-------------2-|---0-----------|
D|------------------|---------------|
A|------------------|---------------|
E|------------------|-3-------------|

Verse 1:  (this part i-strum nyo na lang)
          D
	'Wag mo ng ipilit
                              G
	'Wag mo ng piliting lumapit
          D
	Ako'y iyong limutin
                             G
	Baka pa ang langit magalit
             D
	Balikan mo ang dati
                               G
	Isipin kung sa'n ka nagkamali
        D
	Nariyan ka pala
                        G
	Nagluluksa sa dilim

Refrain:
            G-F#m/D-Em
	e|--------5-5-----2----5-5-----2----|
	B|------------3-3---3------3-3---3--|
	G|----------------------------------|
	D|----------------------------------|
	A|----------------------------------|
	E|--3--2--0------------0------------|
                  Ubos na ang luha

            A     G   F#m  Em   
	e|----------------------------------|
	B|-----2----------------------------|
	G|----2-----0----2---0--------------|
	D|---2-----0----4---2---------------|
	A|--0-----2----4---2----------------|
	E|-------3----2---0-----------------|
	   haa   aa   aa  aaa...

Verse 2:
	Bago na ang tinig
	Bago na ang ihip ng hangin
	Ubos na ang luha
	Sa langit at lupang atin
	Alaala inaamag sa isipan
	Nariyan ka pa ba]
	Nagluluksa sa dilim

(Repeat refrain)
	(D-G) na lang 'to dito kasi part na ng violin 'to

	Ubos na ang luha (Repeat 3x)
	Hee - iyah (Repeat 2x)
                     -Finito-
Tap to rate this tab
 
# A B C D E F G H I J K L M N O P Q R S T U V W X Y Z