Song name
# A B C D E F G H I J K L M N O P Q R S T U V W X Y Z

Rivermaya - Table For Two tab

Table For Two Tab by Rivermaya

Song: Table For Two
Artist/Band: Rivermaya
Between The Stars And Waves Album
Tabbed by: Ian Bernard Gilay a.k.a. fritzoy

It's almost 100% just try it out and it really fits. This is my first tab in this 
coz my other tablatures were rejected due to lots of versions. E-mail me if there's something 
or if there is lacking.. Thank you, pinoy rocks rulezz!! Long Live Music!! =) Thank You Ultimate-Guitar.com.

Intro:

e----------------------------2-----2-----------2------|
B------------3---2---2----------------------------3---|
G--------------0---2---2-----------------2------------|
D-----------------------------------------------------|
A----2------------------------------------------------|
E--3--------------------------------------------------|

e----------------------------2-----2-----------2------|
B------------3---2---2----------------------------3---|
G--------------0---2---2-----------------2------------|
D-----------------------------------------------------|
A----2------------------------------------------------|
E--3--------------------------------------------------|

e----------------------------2-----2-----------2------|
B------------3---2---2----------------------------3---|
G--------------0---2---2-----------------2------------|
D-----------------------------------------------------|
A----2------------------------------------------------|
E--3--------------------------------------------------|

e----------------------------2-----2-----------2------|
B------------3---2---2----------------------------3---|
G--------------0---2---2-----------------2------------|
D-----------------------------------------------------|
A----2------------------------------------------------|
E--3--------------------------------------------------|

Enter Verse 1:

e----------------------------2-----2------------------|
B------------3---2---2--------------------------------|
G--------------0---2---2-----------------2------------|
D-----------------------------------------------------|
A----2------------------------------------------------|
E--3--------------------------------------------------|

Then open chords:

Listen to the song to get how the strumming is done and to get how the chords change 
G to A from A to G.. It's simple just listen to the song.

G - A

	G		A

e----3----------------------------------|
B----3----------------------2-----------|
G---------------------------2-----------|
D---------------------------2-----------|
A--2------------------------------------|
E----3----------------------------------|

The rest.. Just repeat it from the beginning and back again to the chords and then the 
and end.. Just listen to the music to get it, it's just simple.. A simple song but fits 
the heart, a very nice song.. okay til der folks!! Keep on rockin!! If you need something
e-mail me at iansfab@yahoo.com or add me sa friendster or add me sa gunbound -> fritzoy. 
to my baby Cindy!! Luv yah always.. =)
Thank you, Ultimate-Guitar.com.
Tap to rate this tab
# A B C D E F G H I J K L M N O P Q R S T U V W X Y Z