Song name
# A B C D E F G H I J K L M N O P Q R S T U V W X Y Z

Rivermaya - Good Afternoon tab

Good Afternoon Tab by Rivermaya

Song: Good Afternoon
Artist/Band: Rivermaya
Between The Stars And Waves Album
Tabbed by: Ian Bernard Gilay a.k.a. fritzoy

My 2nd tab for this website.. almost 100% maybe 90%.. I'm 90% sure in this tablature, 
listen to the music and find it out how the song is played. It's a nice and a cute song.. hehehe..


Legend:
V= Down Stroke
^= Up Stroke

Intro:

	V	V	V	V	^
e-----9-----9-----9-----9-----9----------------|
B-----9-----9-----9-----9-----9----------------|
G-----9-----9-----9-----9-----9----------------|
D-----9-----9-----9-----9-----9----------------|
A-----9-----9-----9-----9-----9----------------|
E-----9-----9-----9-----9-----9----------------|

e--------------------------------------------------------|
B------8--12--------8--12---------8--12--------8--12-----|
G---9---------8--9---------8--9----------8--9------------|
D--------------------------------------------------------|
A--------------------------------------------------------|
E--------------------------------------------------------|

e--------------------------------------------------------|
B--------8--12--------8--12------------------------------|
G--8--9---------8--9---------9---------------------------|
D--------------------------------------------------------|
A--------------------------------------------------------|
E--------------------------------------------------------|

	V	V	V	V	^
e-----9-----9-----9-----9-----9----------------|
B-----9-----9-----9-----9-----9----------------|
G-----9-----9-----9-----9-----9----------------|
D-----9-----9-----9-----9-----9----------------|
A-----9-----9-----9-----9-----9----------------|
E-----9-----9-----9-----9-----9----------------|

e--------------------------------------------------------|
B------8--12--------8--12---------8--12--------8--12-----|
G---9---------8--9---------8--9----------8--9------------|
D--------------------------------------------------------|
A--------------------------------------------------------|
E--------------------------------------------------------|

e--------------------------------------------------------|
B--------8--12--------8--12------------------------------|
G--8--9---------8--9---------9---------------------------|
D--------------------------------------------------------|
A--------------------------------------------------------|
E--------------------------------------------------------|

      V	    V	  V	V     ^
e-----9-----9-----9-----9-----9----------------|
B-----9-----9-----9-----9-----9----------------|
G-----9-----9-----9-----9-----9----------------|
D-----9-----9-----9-----9-----9----------------|
A-----9-----9-----9-----9-----9----------------|
E-----9-----9-----9-----9-----9----------------|


Verse 1 and Verse 2:

Listen to the song to get how the strumming is done.

B

e---7--------------------------------------|
B---7--------------------------------------|
G------8-----------------------------------|
D---------9--------------------------------|
A---------9--------------------------------|
E---7--------------------------------------|

      V     V	  V	V     ^
e-----9-----9-----9-----9-----9----------------|
B-----9-----9-----9-----9-----9----------------|
G-----9-----9-----9-----9-----9----------------|
D-----9-----9-----9-----9-----9----------------|
A-----9-----9-----9-----9-----9----------------|
E-----9-----9-----9-----9-----9----------------|

B

e---7--------------------------------------|
B---7--------------------------------------|
G------8-----------------------------------|
D---------9--------------------------------|
A---------9--------------------------------|
E---7--------------------------------------|

      V     V	  V	V     ^
e-----9-----9-----9-----9-----9----------------|
B-----9-----9-----9-----9-----9----------------|
G-----9-----9-----9-----9-----9----------------|
D-----9-----9-----9-----9-----9----------------|
A-----9-----9-----9-----9-----9----------------|
E-----9-----9-----9-----9-----9----------------|


Chorus:

G#m		A		B		Am

e---4-------I-----5---------I---7----------I---5-------|
B---4-------I-----5---------I---7----------I---5-------|
G---4-------I--------6------I------8-------I---5-------|
D-------6---I-----------7---I---------9----I--------7--|
A-------6---I-----------7---I---------9----I--------7--|
E---4-------I-----5---------I---7----------I---5-------|

G#m		A		B		Am

e---4-------I-----5---------I---7----------I---5-------|
B---4-------I-----5---------I---7----------I---5-------|
G---4-------I--------6------I------8-------I---5-------|
D-------6---I-----------7---I---------9----I--------7--|
A-------6---I-----------7---I---------9----I--------7--|
E---4-------I-----5---------I---7----------I---5-------|

G#m		A		B		Am

e---4-------I-----5---------I---7----------I---5-------|
B---4-------I-----5---------I---7----------I---5-------|
G---4-------I--------6------I------8-------I---5-------|
D-------6---I-----------7---I---------9----I--------7--|
A-------6---I-----------7---I---------9----I--------7--|
E---4-------I-----5---------I---7----------I---5-------|

G#m		A		B		Am

e---4-------I-----5---------I---7----------I---5-------|
B---4-------I-----5---------I---7----------I---5-------|
G---4-------I--------6------I------8-------I---5-------|
D-------6---I-----------7---I---------9----I--------7--|
A-------6---I-----------7---I---------9----I--------7--|
E---4-------I-----5---------I---7----------I---5-------|

e--------------------------------------------------------|
B------8--12--------8--12---------8--12--------8--12-----|
G---9---------8--9---------8--9----------8--9------------|
D--------------------------------------------------------|
A--------------------------------------------------------|
E--------------------------------------------------------|

e--------------------------------------------------------|
B--------8--12--------8--12------------------------------|
G--8--9---------8--9---------9---------------------------|
D--------------------------------------------------------|
A--------------------------------------------------------|
E--------------------------------------------------------|


      V	    V	  V	V     ^
e-----9-----9-----9-----9-----9----------------|
B-----9-----9-----9-----9-----9----------------|
G-----9-----9-----9-----9-----9----------------|
D-----9-----9-----9-----9-----9----------------|
A-----9-----9-----9-----9-----9----------------|
E-----9-----9-----9-----9-----9----------------|

e--------------------------------------------------------|
B------8--12--------8--12---------8--12--------8--12-----|
G---9---------8--9---------8--9----------8--9------------|
D--------------------------------------------------------|
A--------------------------------------------------------|
E--------------------------------------------------------|

e--------------------------------------------------------|
B--------8--12--------8--12------------------------------|
G--8--9---------8--9---------9---------------------------|
D--------------------------------------------------------|
A--------------------------------------------------------|
E--------------------------------------------------------|

      V	    V	  V	V     ^
e-----9-----9-----9-----9-----9----------------|
B-----9-----9-----9-----9-----9----------------|
G-----9-----9-----9-----9-----9----------------|
D-----9-----9-----9-----9-----9----------------|
A-----9-----9-----9-----9-----9----------------|
E-----9-----9-----9-----9-----9----------------|

Go to Verse 2

Then Chorus

Continue Strumming using chorus chords

The rest is up to you guys to figure it out it's just simple

(sa chorus mukhang plucking yun pero ang ginawa ko I jst strum it nalang bagay naman eh)

Till der lang ako ok bye2.. Thank You, guyszzzzzzzzz..
Keep on rockin!! If you need something e-mail me at iansfab@yahoo.com or add me sa 
or add me sa gunbound -> fritzoy. Helo to my baby Cindy!! Luv yah always.. =)
Thank you, Ultimate-Guitar.com.
Tap to rate this tab
# A B C D E F G H I J K L M N O P Q R S T U V W X Y Z