Song name
# A B C D E F G H I J K L M N O P Q R S T U V W X Y Z

Rivermaya - Mabuhay tab

Artist: Rivermaya
Album : Atomic Bomb
Song  : Mabuhay
---------------------------
as tabbed by devilboy repo
demonic_devilboy@yahoo.com
---------------------------

di ako 100% sure dito,, tagal ko na kasing di napapakinggan tong piece na ito e, at
wala rin akong makitang tab kahit saan na site, kaya ginawa ko tong tab na to. e-mail
nyo na lang ako kung may mali kasi alam kong meron, at kung gugustuhin nyo, yung full
na version e, ha? ok!! enjoy!!!

Standard tuning

Instrumentals

E---------------|---7-5--4h5-4h5-4-------|---------------------|
B-5-5--7-7/9-9--|-5----------------5--2--|-0-7-5-2-0-----------|
G---------------|------------------------|------------2-2-4----|
D---------------|------------------------|------------------2--|
A---------------|------------------------|---------------------|
E---------------|------------------------|---------------------|


E-------------------|-------------------|----------------|----------------|
B-------------------|-------------------|----------------|----------------|
G-9-9/14-14-14\7/9--|-9-9/14-14-14\6/7--|-9-7-6-7-6-7-9--|-9-7-6-7-6------|
D-------------------|-------------------|----------------|-----------9-7--|
A-------------------|-------------------|----------------|----------------|
E-------------------|-------------------|----------------|----------------|


E----------------|----------------|
B----------------|----------------|
G-9-7-6-7-6-7-9--|-9-7-6-7-6------|
D----------------|-----------9-7--|
A----------------|----------------|
E----------------|----------------|

please rate my tab.. hi nga pala to all! haha!
Tap to rate this tab
# A B C D E F G H I J K L M N O P Q R S T U V W X Y Z