Song name
# A B C D E F G H I J K L M N O P Q R S T U V W X Y Z

Rivermaya - Posible tab

Highlighted       Show chord diagrams
song: posible
artist: rivermaya
23rd SEA games - theme
chords and tabbed by: dennis villaflor
email: darkangel_awp029@yahoo.com   639165785995
tuning: EADGBe
^=play it fast,one strum each chord h=hammer ~=bend *=bass playing

note: intro and verses in the song were originally played through bass playing(*) but 
can also use the standard chords if desired.


    D*   Bm*  Bmsus*   D    Bm   
E|--0--|--0--|--0---|--x--|--2--|
A|--5--|--2--|--2---|--x--|--2--|
D|--7--|--4--|--4---|--0--|--4--|
G|--x--|--x--|--5---|--2--|--4--|
B|--x--|--x--|--x---|--3--|--3--|
e|--x--|--x--|--x---|--2--|--2--|

  Bmsus    C     G    Dsus
E|--2---|--0--|--3--|--x---|
A|--2---|--3--|--5--|--x---|
D|--4---|--2--|--5--|--0---|
G|--5---|--0--|--4--|--2---|
B|--3---|--1--|--3--|--3---|
e|--2---|--0--|--3--|--3---|

Ad lib:

E|--------------------------------------------------------|
A|--------------------------------------------------------|
D|--------------------------------------------------------|
G|--5h7-5-7-7-9-11-11~------------------------------------|
B|---------------------7h9-9-11-10-10-7h9-9-11-9~---------|
e|--------------------------------------------------------|

E|--------------------------------------------------------|
A|--------------------------------------------------------|
D|--------------------------------------------------------|
G|--5h7-5-7-8-9-8~----------------------------------------|
B|-----------------7h9-9-11-10-10-7h9-9-11-9~-------------|
e|--------------------------------------------------------|

intro: D*-Bm*-Bmsus*(2x)

verse1:
  D*                                  Bm*-Bmsus*
posible kayang labanan, ang agos ng paghamon
  D*                                  Bm*-Bmsus*
mabuwal at madapa man, sabay tayong aahon

posible kayang mabura, alinlangan sa sarili
ang tapang sa loob makikita, taglay mo ang dugong bayani

interlude: C----

chorus:
D-D^Dsus^D^Dsus^D  Bm-D^Dsus^D^Dsus^D --C-G
sulong laban,      wag uurong
D-D^Dsus^D^Dsus^D  Bm-D^Dsus^D^Dsus^D --C-G
pakinggan s 'yong puso ang sigaw na dati'y bulong..posible

repeat intro:

verse2:

posible kayang matikman, tamis ng gintong minimithi
sa kagat ng bawat laban, magtatagumpay kang muli..

interlude:

Ad lib:

chorus:..end

[i'm not sure if ma-appreciate nyo ung ad lib ko for this particular song..please bear 
it na lang, for corrections an email will do]
..you can use the chorus pattern for the ad lib!
thank you for reading my piece..GODSPEED!!!
Tap to rate this tab
 
# A B C D E F G H I J K L M N O P Q R S T U V W X Y Z