Song name
# A B C D E F G H I J K L M N O P Q R S T U V W X Y Z

Rivermaya - Isang Bandila tab

Title: Isang Bandila
Artist: Rivermaya
Tabbed by: John Paulo B. Valenton
Email add: romayne15@yahoo.com
Cell # no: 09197297251


Intro:

Part1
|-------------15-----------|-------------17-------------|
|----15-17----------15-17--|----15-17----------15-17----|  
|-14-------14---14---------|-14-------14----14----------| (repeat 4x)    
|--------------------------|----------------------------|
|--------------------------|----------------------------|
|--------------------------|----------------------------|

Part2                                  C     E
|----------------------------------------------------|
|----------------------------------------------------|
|--------------------------------------------9-9-9-9-| Ung 1st guitar s2bay
|-7-7--5-7b-5-7-7--5-7b-5-7-7--5-7b-5--10-10---------| sa C tsaka E
|--------------------------------------------7-7-7-7-|
|--------------------------------------8--8----------|
                                       C     E  Ab
|----------------------------------------------------| Ung 1st guitar s2bay
|----------------------------------------------------| sa C, E, Tsaka Ab
|--------------------------------------------9-------|
|-7-7--5-7b-5-7-7--5-7b-5-7-7--5-7b-5--10-10----6----|
|--------------------------------------------7-------|
|--------------------------------------8--8-----4----|

|---------------------------------|
|---------------------------------|
|---------4-4-----4-4-----4-------|
|-7-7-5-5-----5-5-----5-5---7-5-7-|
|---------------------------------|
|---------------------------------|
                          Wooh oooh…
|---------------------------------|
|---------------------------------|
|---------4-4-----4h5-4-2-4-2-0---|
|-7-7-5-5-----5-5-----------------|
|---------------------------------|
|---------------------------------|
                          Woohooh…
|---------------------------------|
|---------------------------------|
|---------4-4-----4-4-----4-------|
|-7-7-5-5-----5-5-----5-5---7-5-7-|
|---------------------------------|
|---------------------------------|
                          Wooh oooh…
|---------------------------------|
|---------------------------------|
|---------4-4-----4h5-4-2-4-2-0---|
|-7-7-5-5-----5-5-----------------|
|---------------------------------|
|---------------------------------|


Verse1:

|---------------------------------|
|---------------------------------|
|---------4-4-----4-4-------------|
|-7-7-5-5-----5-5-----5-5-----5-5-|
|-------------------------7-7-----|
|---------------------------------|     
                                        Paulit ulit lang itong dalawa
|---------------------------------|
|---------------------------------|      (4x ito uulitin)
|---------4-4-----4h5-4-2-4-2-0---|
|-7-7-5-5-----5-5-----------------|
|---------------------------------|
|---------------------------------|

Refrain:

Guitar1
|-------------15-----------|-------------17-------------|
|----15-17----------15-17--|----15-17----------15-17----|  
|-14-------14---14---------|-14-------14----14----------| (repeat 8x)    
|--------------------------|----------------------------|
|--------------------------|----------------------------|
|--------------------------|----------------------------|

Guitar2
|-----------------------------17-17b--------------------| papasok lang ito
|---------------------------------------17b-------------| sa pangalawa 
|------------------------------------17-----------------| (2x)
|-------------------------------------------------------|
|-------------------------------------------------------|
|-------------------------------------------------------|    tapos uulitin ulit
					
CHORUS:

  C        G      Dm       Am
|-----0--------3------5------------------------|
|-------1---------------4--------0h4-4---------|
|---0---------------7----------2---------------|
|-----------------0----------2-----------------|
|-3----------5-------------0-------------------|
|----------3-----------------------------------|

  C        G      Am       F
|-----0--------3--------0----------------------|
|-------1-------------1------------------------|
|---0------------------------------------------|
|-------------------2----------3---------------|
|-3----------5----0----------3-----------------|
|----------3---------------1-------------------|

  C        G      Dm       Am
|-----0--------3------5------------------------|
|-------1---------------4--------0h4-4---------|
|---0---------------7----------2---------------|
|-----------------0----------2-----------------|
|-3----------5-------------0-------------------|
|----------3-----------------------------------|

  C        G      Am       F
|-----0--------3--0-0--------------------------|
|-------1---------1-1--------------------------|
|---0-------------2-2--------------------------|
|-----------------2-2------3-3-----------------|
|-3----------5----0-0------3-3-----------------|
|----------3---------------1-1-----------------|

|---------------------------------|
|---------------------------------|
|---------4-4-----4-4-------------|
|-7-7-5-5-----5-5-----5-5-----5-5-|
|-------------------------7-7-----|
|---------------------------------|     
                          Wooh oooh…


|---------------------------------|
|---------------------------------|
|---------4-4-----4h5-4-2-4-2-0---|
|-7-7-5-5-----5-5-----------------|
|---------------------------------|
|---------------------------------|

Verse2
|---------------------------------|
|---------------------------------|
|---------4-4-----4-4-------------|
|-7-7-5-5-----5-5-----5-5-----5-5-|
|-------------------------7-7-----|
|---------------------------------|     
                                        Paulit ulit lang itong dalawa
|---------------------------------|
|---------------------------------|      (3x ito uulitin)
|---------4-4-----4h5-4-2-4-2-0---|
|-7-7-5-5-----5-5-----------------|
|---------------------------------|
|---------------------------------|

Refrain:

Guitar1
|-------------15-----------|-------------17-------------|
|----15-17----------15-17--|----15-17----------15-17----|  
|-14-------14---14---------|-14-------14----14----------| (repeat 8x)    
|--------------------------|----------------------------|
|--------------------------|----------------------------|
|--------------------------|----------------------------|

Guitar2
|-----------------------------17-17b--------17----------| timingan nyo na
|---------------------------------------17b-------------| lang kung san p2sok
|------------------------------------17-----------------| (2x)
|-------------------------------------------------------|
|-------------------------------------------------------|
|-------------------------------------------------------|    tapos uulitin ulit

(Repeat Chorus) ung chorus na 2, p2sok na ung 1st guitar (mgiistrum na)
                Isa isang strum lang


Habang ngiistrum ng chords ung 1st guitar, isabay ito

  C    G      Dm       Am             C     G     Am  F
|---------------------------------------------------------------|
|---------------------------------------------------------------|
|-999-9999999-101010101010s9-999999-999-99999-99----------------|
|-------------------------------------------------7-7-33333333--|
|-777-7777777--8-8-8-8-8-8s7-777777-777-77777-77--7-7-33333333--|
|-------------------------------------------------5-5-11111111--|

Final Chorus (sabay na ung 2 gitara)

  C         G        Dm        Am    Bm  C         G        Am       F
|-----------------------------------------------------------------------------|
|-----------------------------------------------------------------------------|
|-5-5-5-55------------7-7-7-77-----------5-5-5-55-----------------------------|
|-5-5-5-55--5-5-5-55--7-7-7-77--7-7-7-9--5-5-5-55--5-5-5-55-7-7-7-77-3-3-3-33-|
|-3-3-3-33--5-5-5-55--5-5-5-55--7-7-7-9--3-3-3-33--5-5-5-55-7-7-7-77-3-3-3-33-|
|-----------3-3-3-33------------5-5-5-7------------3-3-3-33-5-5-5-55-1-1-1-11-|

  C         Dm        Am        F        
|----------------------------------------------------------|
|----------------------------------------------------------|
|-5-5-5-55--7-7-7-77---------------------------------------|
|-5-5-5-55--7-7-7-77--7-7-7-77--3-3-3-33-------------------| ultin hnggang
|-3-3-3-33--5-5-5-55--7-7-7-77--3-3-3-33-------------------| mtpos ung chorus
|---------------------5-5-5-55--1-1-1-11-------------------|







Outro

Part1
|-------------15-----------|-------------17-------------|
|----15-17----------15-17--|----15-17----------15-17----|  
|-14-------14---14---------|-14-------14----14----------| (repeat 4x)    
|--------------------------|----------------------------|
|--------------------------|----------------------------|
|--------------------------|----------------------------|

Part2                                  C     E
|----------------------------------------------------|
|----------------------------------------------------|
|--------------------------------------------9-9-9-9-| Ung 1st guitar s2bay
|-7-7--5-7b-5-7-7--5-7b-5-7-7--5-7b-5--10-10---------| sa C tsaka E
|--------------------------------------------7-7-7-7-|
|--------------------------------------8--8----------|
                                       C     E  Ab
|----------------------------------------------------| Ung 1st guitar s2bay
|----------------------------------------------------| sa C, E, Tsaka Ab
|--------------------------------------------9-------|
|-7-7--5-7b-5-7-7--5-7b-5-7-7--5-7b-5--10-10----6----|
|--------------------------------------------7-------|
|--------------------------------------8--8-----4----|

binabati ko nga pla ung mga kaibigan ko cla benjie ,dipad ,dheron ,adrian, pador and dhin!! god bless!!
Tap to rate this tab
 
# A B C D E F G H I J K L M N O P Q R S T U V W X Y Z