Song name
# A B C D E F G H I J K L M N O P Q R S T U V W X Y Z

Rivermaya - Sumigaw tab

Song:Sumigaw
Album:Bagong Liwanag
Artist:Rivermaya
Date Tabbed:September,2007
Guitar Tabber:Ryan Manongdo/17/m/Montalban Rizal
              no_falter0x@yahoo.com(Friendster&YM)

For your comments,questions or suggestions,just post a comment,mail or PM me.

  I would like to greet my Classmates in Our Lady of Fatima University(BSN 
and to my friends;
Yahshua,Reggie,Jethro,Lanard and SA MGA DI KO NABANNGIT...(alam nyu na kung sinu kayo)...

  To Rivermaya members,

  You can stand alone w/out Rico...Keep up the good work!!!!

Gtr.Legends:
/ - slide
p - pull-off
h - hammer-on
~ - let it ring
. - palm muting

Gtr.Tuning:Standard(Normal)


Verse 1:Huwag ka munang mag-isip...
Bass
G|-------10101010-88888-10101010---------12121212-10101010---|
D|-88888---------------------------88888---------------------|
A|-----------------------------------------------------------|
E|-----------------------------------------------------------|

Minsan lang natatabunan....
e|-11111-11111-33333-66666----111111-33333-44444--------13-------|
B|-11111-11111-33333-66666----111111-33333-44444-----11----11~---|
G|-33333-22222-33333-88888----333333-33333-55555--10-------------|
D|-33333-33333-55555-88888----333333-55555-66666-----------------|
A|-11111-33333-55555-66666----111111-55555-66666-----------------|
E|-------11111-33333-----------------33333-44444-----------------|

Chorus:Sumigaw,tumingin....
e|-66666-66666-66666-66666----333333-66666-44444---11111-11111-66666-11111---|
B|-66666-66666-66666-66666----333333-66666-44444---11111-11111-66666-11111---|
G|-77777-88888-77777-88888----333333-88888-55555---33333-22222-88888-22222---|
D|-88888-88888-88888-88888----555555-88888-66666---33333-33333-88888-33333---|
A|-88888-66666-88888-66666----555555-66666-66666---11111-33333-66666-33333---|
E|-66666-------66666----------333333-------44444---------11111-------11111---|

Pre-Verse 2:Drums

Verse 2:Wag mong isipin...
e|-1~---1~-----1-------1~--1-3-6-5-3-1---1~---1-------|
B|-1~---1~-------1~----1~----------------4~-----------|
G|-2~---3~---3---------2~----------------3~------3~---|
D|-3~---3~-------------3~----------------1~-----------|
A|----------------------------------------------------|
E|----------------------------------------------------|

Minsan lang natatabunan...
e|-------------------------------------------------------|
B|-------------------------------------------------------|
G|-33333-------------88888----33333----------------------|
D|-33333-33333-55555-88888----33333-55555-66666--6-6-6---|
A|-11111-33333-55555-66666----11111-55555-66666--6-6-6---|
E|-------11111-33333----------------33333-44444--4-4-4---|
   ..... ..... ..... .....    ..... ..... .....  . . .

Repeat Chorus:

Bridge:Minsan tayo ay...
e|-1~----------1~----------------1~----------------------------------------------------|
B|-4~----------1~----------------4~----------------------------------------------------|
G|-3~-8h10-----3~--7-8h10-7------3~---3----3----3---88888-7777-8888--------------------|
D|-1~------8\--3~-----------8\---1~-----------------88888-7777-8888---55555--3333333---|
A|-------------1~-------------------1----1---1------66666-5555-6666---55555--3333333---|
E|--------------------------------------------------------------------33333--1111111---|
                                                    ..... .... ....

Repeat Chorus:

Outro:
e|-66666-66666---|
B|-66666-66666---|
G|-77777-88888---| Repeat Many Times and get the timing...
D|-88888-88888---|
A|-88888-66666---|
E|-66666---------|

Ends with...
e|-------------------|
B|-------------------|
G|---------7~--------|
D|-8-8-8---8~--8-8---|
A|-8-8-8---8~--8-8---|
E|-6-6-6---6~--6-6---|
   . . .       . .

End...


Sumigaw Lyrics:

Verse 1
Wag ka na munang mag-isip
Ng kung ano mang problema
Tanggap mo na'ng mundo'y mapaglaro
Minsan lang natatabunan ng saya
Bale wala kung enjoyin' mong mag-isa

Chorus:
Sumigaw, tumingin
Kung saan ka nanggaling
Harapin ang hamon ng mundong ito
(Handa ka na ba?)
Asahan mo na hanggang sa huli
Nandito lang kami

Verse 2:
Wag mong isipin na hindi ka naintindihan
Sasabayan ka naming kahit ano pa yan
Minsan lang natatabunan ng saya
Sama-sama tayo, halina't kumanta

Repeat Chorus:

Bridge:
Minsan tayo ay nadadapa
Kontra sa ihip ng tadhana
(Ayos lang yan)
Wag ka munang mag-alala
(Ayos lang yan)
Magkamali man, sagot kita
(Ayos lang yan)
Bukas ang pintuan ng barkada
Dito ka nalang muna

Outro Chorus:
Sumigaw, tumingin
Kung saan ka nanggaling
Harapin ang hamon ng buong mundo
(Handa ka na ba?)
Asahan mo na hanggang sa huli
Nandito lang kami
Nandito lang kami

Tuloy ang Ligaya!
Tap to rate this tab
 
# A B C D E F G H I J K L M N O P Q R S T U V W X Y Z