Song name
# A B C D E F G H I J K L M N O P Q R S T U V W X Y Z

Rivermaya - Banda Ng Bayan Acoustic tab

Pamagat: Banda Ng Bayan (Acoustic Version) 
Artista: Rivermaya
Gawa ni: Ewan

                This is the new song of Rivermaya
                        PLease support this song..
                      OPM AUTHORITY RULES!


        Pacenxa kung magulo un tab..hehe...first time eh....Ayusin ko nlang
             Kung may mali..hahaha..Peace Rock!>>>>>>
                 Doobidoo....Kamusta ka na>?    

Intro:

    D      A     Em       G        Bm      A
e--222-|------|-------|---333--|---222--|-------|
b--333-|--000-|-------|---333--|---333--|--000--|
g--222-|--222-|--xxx--|---000--|---444--|--222--|
D------|--222-|--222--|---000--|---444--|--222--|
A------|------|--222--|---222--|---222--|-------|
E------|------|-------|---333--|--------|-------|

Verse:
      
   D        G      Bm                                                             
e--333-|---333--|--222--|                
b--222-|---333--|--333--|                
g--333-|---000--|--444--|               
D------|---000--|--444--|   
A------|---222--|--222--|               
E------|---333--|-------|  

    Then Switch
   
   D       F#m    G            F#m    G
e--222--|--xx--|--333--|   ---222--|---333---|
b--333--|--22--|--333--|   ---222--|---333---|
g--222--|--22--|--000--|   ---222--|---000---|
D-------|--44--|--000--|   ---444--|---000---|
A-------|--44--|--222--|   ---444--|---222---|
E-------|--22--|--333--|   ---222--|---333---|  

Chorus:
   D      Bm      G        A
e--222--|-222-|--333--|--------|
b--333--|-333-|--333--|--000---|
g--222--|-444-|--000--|--222---|
D-------|-444-|--000--|--222---|
A-------|-222-|--222--|--------|
E-------|-----|--333--|--------| 

Bridge:
   C       D       C       D 
e------|--222--|-------|--222--|
b--111-|--333--|--111--|--333--|
g--000-|--222--|--000--|--222--|
D--222-|-------|--222--|-------|
A--333-|-------|--333--|-------|
E------|-------|-------|-------|

Then Switch
  Em       G                      G    D     Am    C
e-------|--333--|              .--33---222---------------.
b-------|--333--|  Then Switch .--33---333---11----11----.
g-------|--000--|              .--00---222---22----00----.
D--222--|--000--|              .--00---------22----22----.
A--222--|--222--|              .--22---------------33----.
E-------|--333--|              .--33---------------------.



Lryics:

Nagsisimula pa lang, Teka muna
Pakinggan niyo kami kung ayos lang
Hindi naman kailangan pagpilitan
Kung ayaw mo,kung ayaw mo. ok lang

Chorus:
                     
Ang sarap ng buhay, Mga maliliit na bagay
Nagdadagdag ng kulay sa kapaligiran
Mga problemang nakakantahan

Verse 2:

Ang pagmahala walang katulad
Ang hirap ng buhay, Sinabi mo pa
Pero nagagawan ng paraan
Harapin ang,harapin ang katotohan

Chorus:
   
Ang sarap ng buhay, Mga maliliit na bagay
Nagdadagdag ng kulay sa kapaligiran
                   
Takbo ng mundo ay nasasabayan
Pagpugay, kami ay nagbibigay pugay
Saming mga kasama, nakasama tuloy ang ligaya

Bridge:

Tara sumama, umawit ka
Lagyan ng boses ang musika
Sama sama tayo
Walang iwanan
Tayo po,tayo po ang banda ng bayan
Tara sumama, umawit ka
Lagyan natin ng boses ang musika.
Tap to rate this tab
 
# A B C D E F G H I J K L M N O P Q R S T U V W X Y Z