Guitaretab - guitar tabs
Song name
# A B C D E F G H I J K L M N O P Q R S T U V W X Y Z

Rivers Cuomo - I Was Made For You tab

-------------------------------------------------------------------------------
			     I Was Made For You - She & Him
-------------------------------------------------------------------------------
Tabbed by: Cadet PD
Email: Ska.Boss66@gmail.com

Tuning: Standard

Intro with drums
(Palm Muted)

   C       Am      F       G
e|----------------------------------|
B|----------------------------------|
G|----------------------------------|
D|----------------------------------|
A|-------------7---------------5----|
E|-8-888-7-5-5---5-1-111-0-3-3---3--|

   C       Am      F       G       C      
e|-----------------------------------|
B|-----------------------------------|
G|-----------------------------------|
D|-----------------------------------|
A|-------------7---------------5-----|
E|-8-888-7-5-5---5-1-111-0-3-3---3-8-|


"I Was Taking A Walk..."
                         F     G
e|-----------------------------------|
B|-----------------------------------|
G|-----------------------------------|
D|-----------------------------------|
A|-------------------------------5---|
E|-----------------------1-1-0-3-----|

Matt kind of changes it up a bit. So shuffle between this and 
the intro riff for the verses or mix it up however you want.

   C       Am      F       G
e|---------------------------------|
B|---------------------------------|
G|---------------------------------|
D|---------------------------------|
A|---------------------------------|
E|-8-888-7-5-555-0-1-111-0-3-3-5-3-|

[ Tab from: http://www.guitaretab.com/r/rivers-cuomo/100668.html ]
Pre-Chorus
"When I Saw You, Smile..."

   F      Fm      C     C7     F     Fm    G
e|-1------1-------3-----3------1-----1-----3---|
B|-1------1-------5-----5------1-----1-----3---|
G|-2------1-------5-----3------2-----1-----4---|
D|-3------3-------5-----5------3-----3-----5---|
A|-3------3-------3-----3------3-----3-----5---|
E|-1------1-------x-----x------1-----1-----3---|

Chorus
Note: Same as the verses, again, mix it up, alteratively, 
live he plays something similar to this: 

    C     Am     F     G
e|----------------------------------|
B|----5-----1--1---1-----3--3-------|
G|----5-----2--2---2-----4--4-------|
D|----5-----2--2---3-----5--5-------|
A|--3---3-0--------3-----5--5-------|
E|---------------1---1/3------------|

Listen to the song to get the rhythm. Also, fast arpeggios  
of the chords sound rather accurate to the recording. 

Then there is the transition riff, which I cannot tab out.
The chord is C, so just play that and mess around in the scale.

"Baby! Baby! I Was Made For You!"

Single Strums and use vibrato

   F     F#/D7    G  
e|-1~-----2~------3~----|
B|-1~-----1~------3~----|
G|-2~-----2~------4~----|
D|-3~-----0~------5~----|
A|-3~-----x~------5~----|
E|-1~-----2~------3~----|



Then the song repeats.

Live, he also plays a solo at the end, and all I can really 
determine is that he quotes "Blue Moon" in it.





| /  slide up
| \  slide down
| h  hammer-on
| p  pull-off
| ~  vibrato
| +  harmonic
| x  Mute note
===============================================================================
Related for I Was Made For You tab