Song name
# A B C D E F G H I J K L M N O P Q R S T U V W X Y Z

Rivers Cuomo - The World We Love So Much tab

----------------------------------------------------------------------------
			    The World We Love So Much - Rivers Cuomo
----------------------------------------------------------------------------

Tabbed by: kdogg
Email:

Tuning:  half step down

Verse:

e|---------------------------------------------------------------------------|
B|---------------9-----------------------------------9-----------------------|
G|-----------9-------9-------------------------9-----------9-----------------|
D|-------11--------------11---------------11-----------------------11--------|
A|----9-----------------------9-----9------------------------------------9---|
E|---------------------------------------------------------------------------|

e|---------------------------------------------------------------------------|
B|---------------9-----------------------------------9-----------------------|
G|-----------9-------9-------------------------9-----------9-----------------|
D|-------11--------------11---------------11-----------------------11--------|
A|----9-----------------------9-----9------------------------------------9---|
E|---------------------------------------------------------------------------|

e|---------------------------------------------------------------------------|
B|---------------------------------------------------------------------------|
G|----------------8-------------------------------8--------------------------|
D|------------9-------9---------------------9------------9-------------------|
A|-------7----------------7-----------7-------------------------7------------|
E|--0---------------------------0-------------------------------------0------|

e|---------------------------------------------------------------------------|
B|---------------------------------------------------------------------------|
G|------------------8------------------------------8-------------------------|
D|-------------9---------9-------------------9------------9------------------|
A|--------7-----------------7---------7--------------------------7-----------|
E|---0--------------------------0-------------------------------------0------|

Rivers alternates picking pattern on the verse.


Chorus:

D - D - C# - B - A - F#m

E


=============================================================
Tap to rate this tab
# A B C D E F G H I J K L M N O P Q R S T U V W X Y Z