Song name
# A B C D E F G H I J K L M N O P Q R S T U V W X Y Z

Rivers Cuomo - Longtime Sunshine tab

Longtime Sunshine
Rivers Cuomo
Simple tab--Chords are played, but hey might as well
throw in some power chords. 
Can be played like this or a half step down. If it's a half
step down just switch the chord to the left one fret.

Verses 1
|---------------------------|
|---------------------------|
|--7-7------------7-7-------|
|--7-7--5-5--7-7--7-7-------|
|--5-5--5-5--7-7--5-5-------|
|-------3-3--5-5------------|

Chorus  2x 
|---------------------|
|---------------------|
|--4-4------------7-7-|
|--4-4--5-5--7-7--7-7-|
|--2-2--5-5--7-7--5-5-|
|-------3-3--5-5------|

Verse 2
|---------------------------|
|---------------------------|
|--7-7------------7-7-------|
|--7-7--5-5--7-7--7-7-------|
|--5-5--5-5--7-7--5-5-------|
|-------3-3--5-5------------|

Chorus  2x 
|---------------------|
|---------------------|
|--4-4------------7-7-|
|--4-4--5-5--7-7--7-7-|
|--2-2--5-5--7-7--5-5-|
|-------3-3--5-5------|

Verse 3
|--------------------|
|--------------------|
|--7~----------7~----|
|--7~--5~--7~--7~----|
|--5~--5~--7~--5~----|
|------3~--5~--------|

Final Chorus
6x end on the D
|---------------------|
|---------------------|
|--4-4------------7-7-|
|--4-4--5-5--7-7--7-7-|
|--2-2--5-5--7-7--5-5-|
|-------3-3--5-5------|

I'm sure there will be no questions or comments
but email me at jpete27@hotmail.com
Tap to rate this tab
# A B C D E F G H I J K L M N O P Q R S T U V W X Y Z