Song name
# A B C D E F G H I J K L M N O P Q R S T U V W X Y Z

Rivers Cuomo - Wanda Your My Only Love tab

Band:Rivers Cuomo
Song: Wanda Your My Only Love


tabbed by jam9383@yahoo.com

Intro-

e---------------------------------------0--0-----0----1-----------|
B--------4------3-----------------------------3-------1-----------|
G------2-----------3----------------------------------2-----------|
D----3----------------3---0---------2-----------------3-----------|
A--------------------------------3--------------------3-----------|
E--1--------------------------------------------------1-----------|

Verse

e-----------------------------------------------------------------|
B---------------------------1--3----------------------------------|
G--------2---------2------2---------0-3------------3---------2----|
D------3---------3------1---------0------------------------3------|
A-----------------------------------------0h1---4--------3--------|
E--1----------0---------------------------------------------------|

e-----------------------------------------------------------------|
B-----------------------------------------------------------------|
G---------0--2--------0---2---------------------------------------|
D-----------------------------------------------------------------|
A----2-------------1----------------------------------------------|
E-----------------------------------------------------------------|


F          Bb
Except for her

   C             F
She was my true friend
F            Bb
Dancing with me
     C         F
She was my girlfriend
F         C     cdef
Somebody, please, tell her for me
Gm       C            F
Wanda, you're my only love


You're so lucky
You're family's normal
Mom drives a big rig
My daddy's gay

No matter to her
She was my true friend
Dancing with me
She was my girlfriend
Somebody, please, tell her for me

Wanda, you're my only love
Fm          Bbm  C        Fm
Until the day I threw you away
           Bbm         C            Fm
Now I'm alone, and I wish you were home


any comments/corrections contact me, please rate
Tap to rate this tab
 
# A B C D E F G H I J K L M N O P Q R S T U V W X Y Z