Song name
# A B C D E F G H I J K L M N O P Q R S T U V W X Y Z

Rivers Cuomo - Lemonade tab

-------------------------------------------------------------------------------
			     
------------------------------------------------------------------------------- 
first tab^^
Tabbed by:Taxidriver
Email:hampushjelte@hotmail.com

I wonder why nobody has tabbed this song yet, it's really simple!

Verse

e|--------------------------------------------------------------------------|
B|--------------------------------------------------------------------------|
G|-4-4-4-4-4-4--------------------------------------------------------------|
D|-4-4-4-4-4-4-4-4-4-4-4-4--------------------------------------------------|
A|-2-2-2-2-2-2-4-4-4-4-4-4--------------------------------------------------|
E|-------------2-2-2-2-2-2--------------------------------------------------|

Chorus

e|--------------------------------------------------------------------------|
B|--------------------------------------------------------------------------|
G|-4-4-4-------------4-4-4--------------------------------------------------|
D|-4-4-4-2-2-2-4-4-4-4-4-4--------------------------------------------------|
A|-2-2-2-2-2-2-4-4-4-2-2-2--------------------------------------------------|
E|-------0-0-0-2-2-2--------------------------------------------------------|

Song progression:
Verse: x8
Chorus: x4
Verse: x8
Chorus: x8
Bridge: ?? Please mail me how to play it though
Verse: x4
Chorus: x8
Finish by holding the d power chord.

Tap to rate this tab
# A B C D E F G H I J K L M N O P Q R S T U V W X Y Z