Guitaretab - guitar tabs
Song name
# A B C D E F G H I J K L M N O P Q R S T U V W X Y Z

Riverside - Reality Dream tab

-------------------------------------------------------------------------------
			     Reality Dream - Riverside
-------------------------------------------------------------------------------
Tabbed by: Pedro
Email: thepedro19@aol.com

Tuning: standard

Intro			main riff @ beginning
e|---------------------------------------------------------------------------|
B|---------------------------------------------------------------------------|
G|-------------------------------2-------------------------------------------|
D|---4-4-----------------2h3-2-----2h3-2-------------------------------------|
A|---2-2----x2---------2------2----------2-2---x4----------------------------|
E|---------------------------------------------------------------------------|

e|---------------------------------------------------------------------------|
B|---------------------------------------------------------------------------|
G|----2-------2--------------------------------------------------------------|
D|-----2h3-2----2h3-2--------x4------7------7-----------x4-------------------|
A|--2-------2--------2-2--------------7h8----7h8-7---------------------------|
E|---------------------------------7------7-------7-7------------------------|

e|---------------------------------------------------------------------------|
B|---------------------------------------------------------------------------|
G|---/9~h12--7~---7h9h10--xxx-4~--2h4h5-----/1414h16h17--16---17p16p14~-12--|
D|---------------------------------------------------------------------------|
A|---------------------------------------------------------------------------|
E|---------------------------------------------------------------------------|

e|---------------------------------------------------------------------------|
B|---------------------------------------------------------------------------|
G|---12b-12--------14~--14-16-17-1614h16h17p16p14---14-12\10-12b-----------|
D|----------14------------------------------------14---12----------14-12-x---|
A|---------------------------------------------------------------------------|
E|---------------------------------------------------------------------------|

e|---------------------------------------------------------------------------|
B|---------------------------------------------------------------------------|
G|---/9~h12--7~---7h9h10--xxx-4~--2h4h5-------------------------------------|
D|---------------------------------------------------------------------------|
A|---------------------------------------------------------------------------|
E|---------------------------------------------------------------------------|

e|---------------------------------------------------------------------------|
B|---------------------------------------------------------------------------|
G|----2-------2--------------------------------------------------------------|
D|-----2h3-2----2h3-2--------x4----------------------------------------------|
A|--2-------2--------2-2-----------------------------------------------------|
E|---------------------------------------------------------------------------|
[ Tab from: http://www.guitaretab.com/r/riverside/107975.html ]
e|---------------------------------------------------------------------------|
B|---------------------------------------------------------------------------|
G|--------------------------2------------------------------------------------|
D|-------------------2h3-2-----2h3-2---------------4-4-----------------------|
A|-----------------2------2----------2-2---x4------2-2-----------------------|
E|---------------------------------------------------------------------------|

e|---------------------------------------------------------------------------|
B|---------------------------------------------------------------------------|
G|---------------------------------------------------------------------------|
D|------7h97h9--------------------------------------------------------------|
A|---------------------------------------------------------------------------|
E|---------------------------------------------------------------------------|

Melody:

e|---------------------------------------------------------------------------|
B|-12-12-1212-12h13p10-10-10-1010-10h12h13-13-13-1313p12p8-8-88-8h10h12------|
G|----------------------------------------------------------------------x4---|
D|--------------------------------------------------------------------------|
A|---------------------------------------------------------------------------|
E|---------------------------------------------------------------------------|

e|---------------------------------------------------------------------------|
B|-12-12-1212-12h13p10-10-10-1010-10h12h13-13-13-1313p12p8-8-88-8b-----------|
G|---------------------------------------------------------------------------|
D|--------------------------------------------------------------------------|
A|---------------------------------------------------------------------------|
E|---------------------------------------------------------------------------|

e|---------------------------------------------------------------------------|
B|------8-8-88-8h10\6-6-66/8h10-10-10-10/12-8--------------------------------|
G|---------------------------------------------------------------------------|
D|--------------------------------------------------------------------------|
A|---------------------------------------------------------------------------|
E|---------------------------------------------------------------------------|

e|---------------------------------------------------------------------------|
B|-12-12-1212-12h13p10-10-10-1010-10h12h13-13-13-1313p12p8-8-88-8h10h12------|
G|---------------------------------------------------------------------------|
D|--------------------------------------------------------------------------|
A|---------------------------------------------------------------------------|
E|---------------------------------------------------------------------------|

e|---------------------------------------------------------------------------|
B|---------------------------------------------------------------------------|
G|---------------------------------------------------------------------------|
D|---------x2--------------------------x2-----------------------------------|
A|--1h3p1------1h3h7--57575757---3h5p3-----3h5h9--79797979-------------------|
E|-------3----------------------------5--------------------------------------|


Play again from the melody and then stop at the 7 and your done.




| /  slide up
| \  slide down
| h  hammer-on
| p  pull-off
| ~  vibrato
| +  harmonic
| x  Mute note
===============================================================================

Related for Reality Dream tab