Song name
# A B C D E F G H I J K L M N O P Q R S T U V W X Y Z

Riverside - The Time I Was Daydreaming tab

----------------------------------------
 The Time I was Daydreaming - Riverside
----------------------------------------
Tabbed by: Perso Nel Sogno
Email: nintendology@gmail.com

Tuning: standard

e|---0------5------5-5----0------0-----|
B|---6------6------6-5----0------0-----|
G|---5------5------5-5----5------0-----|  (repeat)
D|---7------7------7-7----5------5-----|
A|---5------5------5-5----3------5-----|
E|-------------------------------3-----|



  "and the thing that I feel..."
e|-0--0-----0--0-----0--0---0----------|
B|-1--0-----1--0-----1--0---1----------|
G|-2--0-----2--0-----2--0---2----------|   (x2)
D|-3--2-----3--2-----3--2---0----------|
A|-3--3-----3--3-----3--3---0----------|
E|-------------------------------------|

========================================
Tap to rate this tab
 
# A B C D E F G H I J K L M N O P Q R S T U V W X Y Z