Song name
# A B C D E F G H I J K L M N O P Q R S T U V W X Y Z

Riverside - Same River tab

> this song is so awsome.. if u've never herd Riverside b4, u must do it now!! b4 its
too late! this is the first solo in the ong, it comes in at about the 4 40 min mark of
the song. listen to it 4 the timing. its very Large!

>drop D tunning

^  bend
\\ Slide down
// slide up
h hammer on
p pull off
~ let ring
TABED BY JOEL DEENEN

e---------------------------------------------------------------------------|
B---------------------------------------------------------------------------|
G-17^19-19-19-19^17--17--15\14--14h15p15------14-15-17--14~-----------------|
D-----------------------------------------17~---------------14-15-17^18^17--|
A---------------------------------------------------------------------------|
D---------------------------------------------------------------------------|

e----------------------------------------------------------------------------|
B-------------18^19^18--18-17-18-17-15-15\\----13-15-13-15~-13---------------|
G------------------------------------------//14-----14--------15-14\\--------|
D-15-14-15-------------------------------------------------------------------|
A----------17\\--------------------------------------------------------------|
D----------------------------------------------------------------------------|

e-------------------------------I----------10-------13-15-11-10-10h11p10-----|
B----------11h13p11-------------I------11h12-11-11----------------------13\\-|
G-10-10h12~--------12-10-10h12\\I/12~-----------12-12------------------------|
D-------------------------------I--------------------------------------------|
A-------------------------------I--------------------------------------------|
D-------------------------------I--------------------------------------------|
                                   repeat this end riff 5 times


Thats it. i'm working on the wjole song right now. so please be patient. if u need any
help with anything get me at Deeno102@hotmail.com. enjoy!
Tap to rate this tab
# A B C D E F G H I J K L M N O P Q R S T U V W X Y Z