Song name
# A B C D E F G H I J K L M N O P Q R S T U V W X Y Z

Riverside - In Two Minds tab

This is a very interesting song. The guitarist focuses a lot of 2nd chords (D2, C2, E2,
2nd chords give the song the dark style. Solo 1 is entirely on the Em scale, whereas
2 starts on a Am scale, and then moves to the Bm, and settles on an A blues scale. Try 
keep your fingers on specific frets for each scale. And for god's sake, use your pinky!

====================
== p - pull-offs  ==
== h - hammer-ons ==
== \ - slide      ==
====================

   Am           F7
e|-0------------0-|
B|-1------------1-|
G|-2------------2-|
D|-2------------3-|
A|-0------------3-|
E|----------------|
Another day of talking


           Am           F7
e|---------0------------0-|
B|---------1------------1-|
G|---------2------------2-|
D|---------2------------3-|
A|---------0------------3-|
E|------------------------|
And I'm in two minds


   Am               F7
e|-0----------------0-|
B|-1----------------1-|
G|-2----------------2-|
D|-2----------------3-|
A|-0----------------3-|
E|--------------------|
       I think I have to tell you


          C   D2
e|--------0---0-|
B|--------1---3-|
G|--------0---2-|
D|--------2---0-|
A|--------3---0-|
E|--------------|
I finally realized


   Am                     F7            Am      F7
e|-0----------------------0-------------0-------0|
B|-1----------------------1-------------1-------1|
G|-2----------------------2-------------2-------2|
D|-2----------------------3-------------2-------3|
A|-0----------------------3-------------0-------3|
E|-----------------------------------------------|
I know you'll never really get inside of me


   Am               F7
e|-0----------------0-|
B|-1----------------1-|
G|-2----------------2-|
D|-2----------------3-|
A|-0----------------3-|
E|--------------------|
     But I don't mean to hurt you


            C   D2       C   D2
e|----------0---0--------0---0|
B|----------1---3--------1---3|
G|----------0---2--------0---2|
D|----------2---0--------2---0|
A|----------3---0--------3---0|
E|----------------------------|
Just let me disappear


  Em
e|0-------------|
B|0-------------|
G|0-------------|
D|2-------------|
A|2-------------|
E|0-------------|
We used to like, it used to be


       G
e|-----3-------------|
B|-----3-------------|
G|-----0-------------|
D|-----0-------------|
A|-----2-------------|
E|-----3-------------|
In the sunset time of our dream


  Em
e|0-------------|
B|0-------------|
G|0-------------|
D|2-------------|
A|2-------------|
E|0-------------|
For all these things we cannot change


       C2
e|-----3-------------|
B|-----3-------------|
G|-----0-------------|
D|-----2-------------|
A|-----3-------------|
E|-------------------|
We cannot be, We cannot stay


           D2
e|---------0---------|
B|---------3---------|
G|---------2---------|
D|---------0---------|
A|---------0---------|
E|-------------------|
But if you lose your faith

         E2D2        G      A2
e|--------20---------3------0|
B|--------53---------3------0|
G|--------42---------0------2|
D|--------20---------0------2|
A|--------20---------2------0|
E|-------------------3-------|
Know that I am still your friend

           D2
e|---------0---------|
B|---------3---------|
G|---------2---------|
D|---------0---------|
A|---------0---------|
E|-------------------|
And if the sky falls down

         E2D2        G        A2
e|--------20---------3--------0|
B|--------53---------3--------0|
G|--------42---------0--------2|
D|--------20---------0--------2|
A|--------20---------2--------0|
E|-------------------3---------|
Know that I will still support you.


solo 1:
  Em
e|----------------------------8---7----------------|
B|----8---10---------8---10---------8-10-----8---10|
G|--9---9----------9---9-----------9-------9---9---|
D|7--------------7----------7------------7---------|
A|-------------------------------------------------|
E|-------------------------------------------------|


Solo 2:
  Am                      Bm                                     A (blues)
e|10----------------------15-15-14-14-14h15p14p120-14h15p14p12------------12--|
B|----13p12p10h12------12----------------------------------------------12-----|
G|------------------14----------------------------------------------14--------|
D|---------------------------------------------------------------14-----------|
A|----------------------------------------------------------------------------|
E|----------------------------------------------------------------------------|


e|-12-12-12-12--------------------------------------------------------|
B|-------------h15-15-15-15p12-12-12-12h13p12----12--12h13p12---------|
G|--------------------------------------------14--------------14--14\9|
D|--------------------------------------------------------------------|
A|--------------------------------------------------------------------|
E|--------------------------------------------------------------------|
Tap to rate this tab
# A B C D E F G H I J K L M N O P Q R S T U V W X Y Z