Song name
# A B C D E F G H I J K L M N O P Q R S T U V W X Y Z

Riverside - Loose Heart tab

Riverside - Out Of Myself - Loose Heart

b = bend
r = release bend
s = slide
k = keep bend


First solo (1:21)

E |---------------------------------------------------------------------------------|
B |-13b15r13-11-13------------------------------------------------------------------|
G |----------------12----12-10------------------------------------------------------|
D |-------------------12-------12-8s10s8-8-8-10s12s13-12-8s10-12------5-3-----------|
A |--------------------------------------------------------------10-5-----5-1s3-1-1-|
E |---------------------------------------------------------------------------------|

Second solo (3:01)

E |----------------------------13----------------------------------------------13-----------------|
B |-13b15k15k15k15r13-13-13-11----15-13-11-13b15k15k15k15r13-13----11-11----11----15-13-13b15r13--|
G |-------------------------------------------------------------12-------12-----------------------|
D |-----------------------------------------------------------------------------------------------|
A |-----------------------------------------------------------------------------------------------|
E |-----------------------------------------------------------------------------------------------|


E |-------------------------------------------------------------13-13b15r13-13---|
B |11h13p11----------------------------------------------11-11-------------------|
G |---------10h12p10-------------------------------10-12-------------------------|
D |------------------10h12p10-------------10-12-13-------------------------------|
A |---------------------------10-10-12-13----------------------------------------|
E |------------------------------------------------------------------------------|
Tap to rate this tab
# A B C D E F G H I J K L M N O P Q R S T U V W X Y Z