Song name
# A B C D E F G H I J K L M N O P Q R S T U V W X Y Z

Riverside - The Same River tab

Help us improve GuitareTab! Take a short survey!
-------------------------------------------------------------------------------
			The Same River - Riverside
-------------------------------------------------------------------------------
Tabbed by:
Email:

Tuning: standard

Intro – play with distortion and delay

	+      + WD
e|---------------------------------------------------------------------------|
B|--------------12\----------------------------------------------------------|
G|-------12-----------------------10h12p10---------10-12-------10~-----------|
D|-------------------------------------------12------------------------------|
A|---------------------------------------------------------------------------|
E|---------------------------------------------------------------------------|

e|---------------------------------------------------------------------------|
B|----13b15r13---10---------------------------------------------------------|
G|-----------------12-10- 12~ -----------------------------------------------|
D|----------------------------------------10-10~ ----------------------------|
A|---------------------------------10h13-------------------------------------|
E|---------------------------------------------------------------------------|

e|---------------------------------------------------------------------------|
B|---------------------------------------------------------------------------|
G|---10b-10----10----------10h11h10------------------------------------------|
D|----------13---10--------------------13-10---------------------------------|
A|---------------------------------------------------------------------------|
E|---------------------------------------------------------------------------|

e|---10h11h13----------10-11-10h11p10----------------------------------------|
B|-------------------------------------13-11-13------------------------------|
G|---------------------------------------------------------------------------|
D|---------------------------------------------------------------------------|
A|---------------------------------------------------------------------------|
E|---------------------------------------------------------------------------|
Main Riff
e|---------------------------------------------------------------------------|
B|---------------------------------------------------------------------------|
G|------5-6-5-----5-6-5-3----------x25---------------------------------------|
D|--5-5---------5---------5--------------------------------------------------|
A|---------------------------------------------------------------------------|
E|---------------------------------------------------------------------------|
Then…
Higher main riff
e|---------------------------------------------------------------------------|
B|---------------------------------------------------------------------------|
G|-----------12-13-12-------12-13-12-10---------------x8---------------------|
D|-----12-12-------------12-------------12-----------------------------------|
A|---------------------------------------------------------------------------|
E|---------------------------------------------------------------------------|
Then play main riff again 10 more times
Then
e|---------------------------------------------------------------------------|
B|---------------------------------------------------------------------------|
G|--x-x--5-6-5----x-x-x-6-5-3-5----------------------------------------------|
D|--x-x--5-5-5----x-x-x-5-5-3-5------------x4--------------------------------|
A|--x-x--3-3-3----x-x-x-3-3-3-5----------------------------------------------|
E|--x-x--3-3-3----x-x-x-3-3-3-3----------------------------------------------|
Then play main riff x4

Solo 1

e|------------------------------------------------------------------------------|
B|-13b15-15-15r13---13-10-10-----10h13p10----10-13-10\--------------------------|
G-----------------------------------------12-----------/10h12--10-9-10\9\7------|
D|------------------------------------------------------------------------------|
A|-------------------------------------------------------------------------10\--|
E|------------------------------------------------------------------------------|

e|--13b-13-10-13p10-10-------------------------------------------------------|
B|------------------------/13-13b-/13-13b---13-10-10-------------------------|
G|---------------------------------------------------------------------------|
D|---------------------------------------------------------------------------|
A|---------------------------------------------------10\---------------------|
E|---------------------------------------------------------------------------|

e|---------------------------------------------------------------------------|
B|---------------11-13-11----------------------------------------------------|
G|--12~-10~-12~------------12-10-12~-----------------------------------------|
D|---------------------------------------------------------------------------|
A|---------------------------------------------------------------------------|
E|---------------------------------------------------------------------------|
End of Solo
Melody
e|---------------------------------------------13---13b15-13-10--------------|
----------13----------11-13/15\13----------13-------------------13-----------|
G|-----12----12~---12-------------12~---12----------------------------x4-----|
D|--10-----------------------------------------------------------------------|
A|---------------------------------------------------------------------------|
E|---------------------------------------------------------------------------|
Bridge – play with lots of distortion
e|---------------------------------------------------------------------------|
B|---------------------------------------------------------------------------|
G|---------------------------------------------------------------------------|
D|-----------12-12-xxx----------xxxxx-----------x4-----------12--------------|
A|--12-12-xx-10-10-xxx-12-12----xxxxx------------------------10--------------|
E|--10-10-xx-10-10-xxx-10-10----xxxxx------------------------10--------------|
                                                        Last time hold
Then…
Bass line 1
e|---------------------------------------------------------------------------|
B|---------------------------------------------------------------------------|
G|---------------------------------------------------------------------------|
D|-------10--8----10--------8h10---------10--8----10----------8h10-----x12---|
A|-------------10-----8h10---------------------10-----8h10-10----------------|
E|--/8-8----------------------------/8-8-------------------------------------|
Then
Bass line 2
e|---------------------------------------------------------------------------|
B|---------------------------------------------------------------------------|
G|---------------------------------------------------------------------------|
D|---------13--11----13-----------11h13-------------------x6-----------------|
A|----------------13-----11h13-13--------------------------------------------|
E|--/11-11-------------------------------------------------------------------|
Then play Bass line 1 x6
Then…
e|---------------------------------------------------------------------------|
B|---------------------------------------------------------------------------|
G|---------------------------------------------------------------------------|
D|---------------------x4----------------------------------------------------|
A|---------------------------------------------------------------------------|
E|---10-10------------------------------------------------------------------|
Then play Bass line 1 x2
Then..
Solo 2
e|---------------------------------------------------------------------------|
B|---------------------------------------------------------------------------|
G|--10b12-12121212-12r10-10101010-10~-9h10-9h10p9-7-9~-----------------------|
D|---------------------------------------------------------------------------|
A|---------------------------------------------------------------------------|
E|---------------------------------------------------------------------------|

e|--------------------------------------------------------------------------------------|
B|--------------------------------------------------------------17h19-19b20-19-19-------|
G|------------------------------15---15-17/19b20-19-17-17—17h19-------------------------|
D|------------------15----15-17---17----------------------------------------------------|
A|------15----15-17----17---------------------------------------------------------------|
E|---17----17---------------------------------------------------------------------------|

                       PH  PH
e|---------------------------------------------------------------------------|
B|---17h19p17----17-------17\--------------------------13b15-13--------------|
G|------------19-------19----------------------------------------------------|
D|-------------------------------------17h19~--------------------------------|
A|---------------------------------------------------------------------------|
E|---------------------------------------------------------------------------|
Play bass line 1 a few times then stop
Soft part
e|---------------------------------------------------------------------------|
B|---4p3-------4p3-----------------------------------------------------------|
G|-------5-5-5-----3-3-3-5-5-5-----------------------------------------------|
D|-----------------------------------x5--------------------------------------|
A|---------------------------------------------------------------------------|
E|---------------------------------------------------------------------------|
Then 
Soft part 2
e|---------------------------------------------------------------------------|
B|---------------------------------------------------------------------------|
G|-----5-5-5-\-1-1-1---------------------------------------------------------
D|--------------------- -----x2----------------------------------------------|
A|---------------------------------------------------------------------------|
E|---------------------------------------------------------------------------|
Then play Soft part 1 twice
Then Soft part 2 twice 					
Outro
e|------------------------------------10-13~---10-------------------------------------|
B|----13b15-15-15-15r13--10--------13-------------13-13----13p11-11p10-10-------------|
G|--------------------------12~-------------------------------------------12----------|
D|------------------------------------------------------------------------------------|
A|------------------------------------------------------------------------------------|
E|------------------------------------------------------------------------------------|

e|---------------------------------------------------------------------------|
B|---------------------------------------------------------------------------|
G|---12-12-10-10-12-12—12b15-12p10h12----------------------------------------|
D|----------------------------------------------------------10---------------|
A|--------------------------------------12-13-10~--10-12-13----13p12p10--9tr10
E|---------------------------------------------------------------------------|
Repeat then play
Final Outro
e|---10-11-8~--8-10-11-11b—11p10p8—7tr8—-8~----------------------------------|
B|---------------------------------------------------------------------------|
G|---------------------------------------------------------------------------|
D|---------------------------------------------------------------------------|
A|---------------------------------------------------------------------------|
E|---------------------------------------------------------------------------|
/she/

I stay... I swear... I am... I can...

Please take a walk with me 
Let me know - Am I to blame?

As you know 
I've always loved you and I know I will always love...

[Part IV (I am)]

I am your fear, hope
I am your grief, joy
I am your deed, word
I am your hate, love

I know... I can... Wanna stay...

| b  bend
| r reverse bend
| /  slide up
| \  slide down
| h  hammer-on
| p  pull-off 
| WD  whammy down
| PH pinched harmonic
| ~  vibrato
| +  harmonic
| x  Mute note
===============================================================================

Related for The Same River tab