Song name
# A B C D E F G H I J K L M N O P Q R S T U V W X Y Z

Rivulets - Cant I Wonder tab

tune down half step

main pattern

E----------------------------------------------------------------------------|
B----------------------------------------------------------------------------|
G-----------0-----------------0-----0-----------0-----------------0-----0----|
A--------7-----7-----------9-----7-----------7-----7----------7h9----7-------|
D-----9-----------9-----9-----------------9-----------9-----9----------------|
E--0-----------------0-----------------0-----------------0-------------------|


E----------------------------------------------------------------------------|
B----------------------------------------------------------------------------|
G-----------0-----------------0-----0-----------0-----------------0-----0----|
A--------7-----7-----------9-----7-----------7-----7----------7h9----7-------|
D-----9-----------9-----9-----------------9-----------9-----9----------------|
E--8-----------------8-----------------8-----------------8-------------------|

Its a bit tricky to get right at first, just start playing it slowly. the hammer ons and 
vary a little throughout the song.

"and when you fall, fall hard,
 when you fall, fall hard
 and then the move so far,
 then the move so far"

E----------------------------------------------------------------------------|
B----------------------------------------------------------------------------|
G-----------0-----------------0-----------------0-----------------0----------|
A-------14----14----------12----12----------10----10-----------9-----9-------|
D----15----------15----14----------14----12----------12----10-----------10---|
E--0-----------------0-----------------0-----------------0-------------------|

                           "can't i wonder" x2


E----------------------------------------------------------------------------|
B----------------------------------------------------------------------------|
G-----------0-----------------0-----------------0-----------------0----------|
A--------7-----7-----------9-----9-----------7-----7-----------7-----7-------|
D-----9-----------9----10----------10-----9-----------9-----9-----------9----|
E--0-----------------0-----------------8-----------------8-------------------|

                           "how you are?"


"in the house alone,
 in the house alone,
 and maybe i'm someone,
 out there someone

 can't i wonder
 can't i wonder
 can't i wonder
 how you are?"


E--------------------------------------|
B--------------------------------------|
G--0----0----0----0----0----0----0-----|
A--14---12---10---9----7----9----7-----|
D--15---14---12---10---9----10---9-----|
E--0----0----0----0----0----0----8-----|


then strum for the rest of the song

E--x----x----x----x----|
B--0----0----0----0----|
G--0----0----0----0----|
A--7----9----7----9----|
D--9----9----9----9----|
E--0----0----8----8----|

you can let the top string ring open if you want
i prefer not to

http://www.rivulets.net/
Tap to rate this tab
# A B C D E F G H I J K L M N O P Q R S T U V W X Y Z