Song name
# A B C D E F G H I J K L M N O P Q R S T U V W X Y Z

Rivulets - Cutter tab

tune half step down (or whole step and capo 1 as he plays i think).


main

           Dsus         em       Cmaj7
E------------x----------x----------x-----------------|
B------------0----------0----------0-----------------|
G------------0----------0----------0-----------------|
A------------7----------9----------5-----------------|
D------------5----------7----------3-----------------|
E------------x----------0----------x-----------------|

Listen to the song and you will see how he places the emphasis
on the base notes and then the open strings to get the strumming
pattern. The chords are something very similar to this.

connect to the outro with:

    em        C               A5
E--------------------------------------------------------|
B---0---------0-------0----------------------------------|
G---0--0------0-------0-------2--------------------------|
A---2-----0---2-------0-------2--------------------------|
D---2---------3-------2-------0--------------------------|
E---0----------------------------------------------------|

outro

E--------------------------------------------------------|
B---------0------------0-----------0------------0--------|
G------5-----5------4-----4-----2-----0------0-----0-----|
A---7------------5-----------4------------7--------------|
D--------------------------------------------------------|
E--------------------------------------------------------|


E--------------------------------------------------------|
B---------0-----------0-----------0-----------0----------|
G------2-----2-----2----2h0----0-----0-----4-----4-------|
A---3-----------3-----------2-----------2----------------|
D--------------------------------------------------------|
E--------------------------------------------------------|


lyrics as best as i can transcribe:

i had a dream once
spirit broken or in love
i walk the shape to the end
i walk the shape to begin
yeah, yeah ...

who else in this world have I
to call on this late at night
i brought the blade to my skin
i brought the blade to my skin
i brought the blade to my skin

i speak
don't cry, i'll see you sunlight baby
don't cry, i'll see you sunlight

http://www.rivulets.net/
Tap to rate this tab
# A B C D E F G H I J K L M N O P Q R S T U V W X Y Z