Song name
# A B C D E F G H I J K L M N O P Q R S T U V W X Y Z

Rivulets - Waited For You tab

Help us improve GuitareTab! Take a short survey!
tune down one semitone (or whole tone and capo 1st fret).

bracket indicate alternate notes / not played everytime

nice easy song enjoy

http://www.rivulets.net/

part1

E-----------------------------------------------------------------|
B-----------------------------------------------------------------|
G-----------------------------------------------------------------|
A---------0---------0---------------0--------0--------------------|
D------9---------9---------9-----7--------7--------7(0)-----------|
E--10--------10--------10-----9--------9--------9-----------------|

E-----------------------------------------------------------------|
B-----------------------------------------------------------------|
G-----------------------------------------------------------------|
A----------0----------0-----------------0--------0----------------|
D------10---------10---------10------9--------7--------7(0)-------|
E--12---------12---------12------10--------9--------9-------------|

part2

E-----------------------------------------------------------------|
B-----------------------------------------------------------------|
G-----------------------------------------------------------------|
A--------0--------0--------------0--------0-----------------------|
D-----5--------5--------5-----4--------4--------4-----------------|
E--7--------7--------7-----5--------5--------5--------------------|

part3

E-----------------------------------------------------------------|
B-----------------------------------------------------------------|
G-----------------------------------------------------------------|
A--------0--------0--------------0--------0-----------------------|
D-----5--------5--------5-----5--------5--------5-----------------|
E--7--------7--------7-----7--------7--------7--------------------|

E-----------------------------------------------------------------|
B-----------------------------------------------------------------|
G-----------------------------------------------------------------|
A--------0--------0---------------0----------0--------------------|
D-----5--------5--------5----5(4)------5(4)--------5--------------|
E--0--------0--------0-----0---------0----------0-----------------|

E-----------------------------------------------------------------|
B-----------------------------------------------------------------|
G-----------------------------------------------------------------|
A--------0--------0--------------0--------0-----------------------|
D-----5--------5--------5-----5--------5--------5-----------------|
E-2s3-------3--------3-----3--------3--------3--------------------|


part1

If you should stay awake
If you should pull apart
If you should tire from strain
How can I carry the weight?


part2

Waited for you
Wait all night long
Waited for you
When you come home
Waited for you
Wait all night long

part1

If you should set them off
If you should kill them off
If you should never sleep
I will see you in dream

part2

Waited for you
Wait all night long
Waited for you
When you come home
Waited for you
Wait all night long

part3

You've got your own
Ego to feed
Why can't you ever
Say what you mean?
C'mon, say what you mean

part1

Even though I know I love her
I'm just another watercolor
In a washed-out sky

part2

Waited for you
Wait all night long
Waited for you
When you come home
Waited for you
Wait all night long

Baby, please come home
Related for Waited For You tab