Song name
# A B C D E F G H I J K L M N O P Q R S T U V W X Y Z

Rivulets - Morning Light tab

tune down half a step

main

E----------------------------------------------------------------------|
B----------------------------------------------------------------------|
G---------------0---------------0---------------0---------------0------|
A-----------0---------------0---------------0---------------0----------|
D-------3---------------3---------------3---------------3--------------|
E-3h5---------------5---------------5---------------5------------------|


E----------------------------------------------------------------------|
B----------------------------------------------------------------------|
G---------------0---------------0---------------0---------------0------|
D-----------0---------------0---------------0---------------0----------|
A-------3---------------3---------------3---------------3--------------|
E---3---------------3---------------3---------------3------------------|

chorus


E----------------------------------------------------------------------|
B----------------------------------------------------------------------|
G---------------0---------------0---------------0---------------0------|
D-------5---------------5-------------------0---------------0----------|
A-----------7---------------7-----------9---------------9--------------|
E---0---------------0---------------10--------------10-----------------|


E----------------------------------------------------------------------|
B----------------------------------------------------------------------|
G---------------0---------------0---------------0---------------0------|
D-----------0---------------0---------------0---------------0----------|
A-------5---------------5---------------7---------------7--------------|
E---7---------------7---------------8---------------8------------------|

Morning light draws through the blinds
Will you wake alone
Or is someone by your side?

Morning light pours through
Struggles to wake you
You hide under the sheets all day
I'd hide under the sheets all day, too

We were won to fall apart
I don't want to lose your heart
We were won to fall apart
I don't want to lose your heart

Morning light breaks through
And you will haunt my day again
It's the dumbest thing to do
We could've stayed the best of friends

We were born to fall apart
I don't want to lose your heart
We were born to fall apart
I don't want to lose your heart

If you've already said goodbye
Guess I'll have to say goodbye

Goodbye
Tap to rate this tab
# A B C D E F G H I J K L M N O P Q R S T U V W X Y Z