Song name
# A B C D E F G H I J K L M N O P Q R S T U V W X Y Z

Rivulets - Rain All Winter Long tab

tune half step down

this song is basically just a Dmaj7 chord

E---0----|
B---2----|
G---2----|
D---0----|
A--------|
E--------|

played with different base notes (A , E , F#, B, D)
something like this:

E------0-----0-----------0-----0---------0-----------|
B------2-----2-----------2-----2---------2-----------|
G------2-----2-----------2-----2---------2-----------|
D------0-----0-----------0-----0---------0-----------|
A---0--------x--------0--------x---------x-----------|
E---------0-----------------0-------0h2--------------|

E------0-----0-----------0-----0---------0-------0---|
B------2-----2-----------2-----2---------2-------2---|
G------2-----2-----------2-----2---------2-------2---|
D------0-----0-----------0-----0---------0-------0---|
A---2--------x--------2--------x---------x-------x---|
E---------0-----------------0-------0h2-------0------|

with lots of strumming in between obviously
that's pretty much it with a few variations


when you play
when you play your songs
well they take you away
like they made me feel home

well they keep you in trees
well they keep you in green
in the cold wet north
inescapable coast

well they keep you warm
well they keep you warm
well they keep you warm
well they keep you warm

its gonna rain all
its gonna rain all
its gonna rain all
winter long

the capital
of suicide by alcohol
of dying dreams and late phone calls
no ones there to watch you fall

its gonna rain all
its gonna rain all
its gonna rain all
winter long

its gonna rain all
its gonna rain all
its gonna rain all
winter long

enjoy
Tap to rate this tab
# A B C D E F G H I J K L M N O P Q R S T U V W X Y Z