Song name
# A B C D E F G H I J K L M N O P Q R S T U V W X Y Z

Rivulets - Shadow Of A Ghost tab

tune down half step

this is very similar to "can't i wonder"
(although this one did come first)

1

E----------------------------------------------------|
B---------------0-----------------------0------------|
G-----------7-------7---------------7-------7--------|
D-------9---------------9-------9--------------9-----|
A---0-----------------------0------------------------|
E----------------------------------------------------|

E----------------------------------------------------|
B---------------0-----------------------0------------|
G-----------5-------5---------------5-------5--------|
D-------7---------------7-------7--------------7-----|
A---0-----------------------0------------------------|
E----------------------------------------------------|

2

E----------------------------------------------------|
B---------------0-----------------------0------------|
G-----------9-------9---------------7-------7--------|
D-------10--------------10------9--------------9-----|
A---0-----------------------0------------------------|
E----------------------------------------------------|

E----------------------------------------------------|
B---------------0-----------------------0------------|
G-----------5-------5---------------4-------4--------|
D-------7---------------7-------5--------------5-----|
A---0-----------------------0------------------------|
E----------------------------------------------------|

E----------------------------------------------------|
B---------------0-----------------------0------------|
G-----------2-------2---------------4-------4--------|
D-------4---------------4-------5--------------5-----|
A---0-----------------------0------------------------|
E----------------------------------------------------|

E----------------------------------------------------|
B---------------0-----------------------0------------|
G-----------2-------2---------------7-------7--------|
D-------4---------------4-------9--------------9-----|
A---0-----------------------0------------------------|
E----------------------------------------------------|


cars pass slow by
sink under street light

shadow of a ghost
shadow of a ghost
shadow of a ghost

lines form they march by
between helpless mind

shadow of a ghost
shadow of a ghost
shadow of a ghost
Tap to rate this tab
 
# A B C D E F G H I J K L M N O P Q R S T U V W X Y Z