Guitaretab - guitar tabs
Song name
# A B C D E F G H I J K L M N O P Q R S T U V W X Y Z

Rivulets - Four Weeks chords

Highlighted       Show chord diagrams
tune down half step


    em  D/F#  G    am   C    am   G    D*
E---0----2----3----0----0----0----3----3----|
B---0----3----3----1----1----1----3----3----|
G---0----2----0----2----0----2----0----2----|
D---2----0----0----2----2----2----0----0----|
A---2----0----2----0----3----0----2----x----|
E---0----2----3----x---(0)---x----3----2----|


hey mr pharmacist 
could you pass me a cigarette
cause i'm dying here
and I just want to get it over with

she says i'm desperate, 
i'm desperate for you
and he wants bravado

and she say's im desperate
im desperate for you
and he wants it all yeah

four weeks to a month
twelve months to a year
how long you gonna 
keep me waiting here?

four weeks to a month
twelve months to a year
how long you gonna 
keep me waiting here?

she asks if i could
cut her hair
for five dollars 
or a pack of lights

and she says i'm desperate
i'm desperate for you
and he wants bravado

and she says i'm desperate
i'm desperate for something new
and he wants it all yeah
[ Tab from: http://www.guitaretab.com/r/rivulets/188287.html ]
four weeks to a month
twelve months to a year
how long you gonna
keep me waiting here?

four weeks to a month
twelve months to a year
how long you gonna
keep me waiting

she's making plans
she's making plans
for getting as far as fast
as fast as she can

she's making plans
she's telling me about them
you can go the west coast
just send some photos

four weeks to a month
twelve months to a year
how long you gonna
me waiting here?

four weeks to a month
twelve months to a year
how long you gonna
keep me waiting




    A7   em   C    em   A7   em   C    D
E---x----x----x----x----x----x----x----x-----|
B---0----0----0----0----0----0----0----0-----|
G---0----0----0----0----0----0----0----0-----|
D---x----x----x----x----x----x----x----x-----|
A---7----2----10---2----7----2----10---12----|
E---5----0----8----0----5----0----8----10----|


and i think i'm gonna need
some kind of medication
if i'm gonna have to
stay here alone

and i think i'm gonna need
some kind of prescription pill
to keep me, keep me from
blowing away


Related for Four Weeks chords
Advertisement will be closed in 10 seconds