Song name
# A B C D E F G H I J K L M N O P Q R S T U V W X Y Z

Rivulets - Stead tab

 capo 1

 intro

E------------------------------------------------------------------|
B------------------------------------------------------------------|
G------------------------------------------------------------------|
D-----------2-----------2-------------------2-----------2----------|
A-------2-----------2-------------------4-----------4--------------|
E---0-----------0-------------------0-----------0------------------|


E------------------------------------------------------------------|
B------------------------------------------------------------------|
G------------------------------------------------------------------|
D-----------2-----------2--------------------------------------2---|
A-------3-----------3--------------------------------------2-------|
E---0-----------0--------------------------------------------------|


E------------------------------------------------------------------|
B------------------------------------------------------------------|
G-----------------------0------------------------------------------|
D-----------2-------------------2------------2----------2----------|
A-------2-----------2-------------------4-----------4----------4---|
E---0-----------0-------------------0-----------0------------------|


E---------------------------------------|
B---------------------------------------|
G---------------------------------------|
D-----------2-----------2---------------|
A-------3-----------3-----------3-------|
E---0-----------0-----------------------|


main


E-------x--------x--------x--------x--------x--------x---------------|
B-------0--------0--------0--------0--------0--------0---------------|
G-------0--------0--------0--------0--------0--------0---------------|
D-------2--------2--------2--------2--------2--------2---------------|
A-------2--------4--------3--------2--------3--------2---------------|
E-------0--------0--------0--------0--------0--------0---------------|


3:20

E----x--------x---------|
B---(0)------(0)--------|
G---(0)------(0)--------|
D----4--------5---------|
A----2--------3---------|
E----x--------x---------|

till you come looking
fallings unfold (this word is not right)
till you come walking
fallings unfold

i wanna know what to do in your stead
i wanna know what to do in your stead

come home, come home
come home, come home
come home
Tap to rate this tab
# A B C D E F G H I J K L M N O P Q R S T U V W X Y Z